  0
SECTION
  2
ENTITIES
  0
ARC
  8
0
 10
5104.822
 20
1790.712
 30
0.0
 40
254.0001
 50
270
 51
0
  0
ARC
  8
0
 10
5104.822
 20
1282.712
 30
0.0
 40
254.0001
 50
0
 51
89.99999
  0
ARC
  8
0
 10
5612.822
 20
1282.712
 30
0.0
 40
254.0001
 50
89.99999
 51
180
  0
ARC
  8
0
 10
5612.822
 20
1790.712
 30
0.0
 40
254.0001
 50
180
 51
270
  0
LINE
  8
0
 10
5358.821
 20
1790.712
 30
0.0
 11
5358.821
 21
1663.712
 31
0.0
  0
ARC
  8
0
 10
5231.821
 20
1663.712
 30
0.0
 40
127
 50
270
 51
0
  0
ARC
  8
0
 10
5231.821
 20
1409.712
 30
0.0
 40
127
 50
0
 51
89.99999
  0
ARC
  8
0
 10
5485.823
 20
1409.712
 30
0.0
 40
127
 50
89.99999
 51
180
  0
ARC
  8
0
 10
5485.823
 20
1663.712
 30
0.0
 40
127
 50
180
 51
270
  0
LINE
  8
0
 10
5358.821
 20
1663.712
 30
0.0
 11
5358.821
 21
1409.712
 31
0.0
  0
LINE
  8
0
 10
5358.821
 20
1409.712
 30
0.0
 11
5358.821
 21
1282.712
 31
0.0
  0
CIRCLE
  8
0
 10
1000
 20
7000
 30
0.0
 40
100
  0
CIRCLE
  8
0
 10
2000
 20
7000
 30
0.0
 40
100
  0
CIRCLE
  8
0
 10
3000
 20
7000
 30
0.0
 40
100
  0
CIRCLE
  8
0
 10
100
 20
100
 30
0.0
 40
125
  0
CIRCLE
  8
0
 10
200
 20
200
 30
0.0
 40
200
  0
CIRCLE
  8
0
 10
300
 20
300
 30
0.0
 40
200
  0
CIRCLE
  8
0
 10
350
 20
350
 30
0.0
 40
200
  0
CIRCLE
  8
0
 10
360
 20
360
 30
0.0
 40
200
  0
CIRCLE
  8
0
 10
370
 20
370
 30
0.0
 40
200
  0
ENDSEC
  0
EOF
