  0
SECTION
  2
ENTITIES
  0
LINE
  8
0
 10
25.4
 20
-203.2
 30
0.0
 11
76.2
 21
-254
 31
0.0
  0
LINE
  8
0
 10
76.2
 20
-254
 30
0.0
 11
-25.4
 21
-254
 31
0.0
  0
LINE
  8
0
 10
-25.4
 20
-254
 30
0.0
 11
-76.2
 21
-304.8
 31
0.0
  0
LINE
  8
0
 10
-76.2
 20
-304.8
 30
0.0
 11
127
 21
-304.8
 31
0.0
  0
LINE
  8
0
 10
127
 20
-304.8
 30
0.0
 11
177.8
 21
-355.6
 31
0.0
  0
LINE
  8
0
 10
177.8
 20
-355.6
 30
0.0
 11
-127
 21
-355.6
 31
0.0
  0
LINE
  8
0
 10
-127
 20
-355.6
 30
0.0
 11
-177.8
 21
-406.4
 31
0.0
  0
LINE
  8
0
 10
-177.8
 20
-406.4
 30
0.0
 11
228.6
 21
-406.4
 31
0.0
  0
LINE
  8
0
 10
228.6
 20
-406.4
 30
0.0
 11
279.4
 21
-457.2
 31
0.0
  0
LINE
  8
0
 10
279.4
 20
-457.2
 30
0.0
 11
-228.6
 21
-457.2
 31
0.0
  0
LINE
  8
0
 10
-228.6
 20
-457.2
 30
0.0
 11
-177.8
 21
-508
 31
0.0
  0
LINE
  8
0
 10
-177.8
 20
-508
 30
0.0
 11
228.6
 21
-508
 31
0.0
  0
LINE
  8
0
 10
228.6
 20
-508
 30
0.0
 11
177.8
 21
-558.8
 31
0.0
  0
LINE
  8
0
 10
177.8
 20
-558.8
 30
0.0
 11
-127
 21
-558.8
 31
0.0
  0
LINE
  8
0
 10
-127
 20
-558.8
 30
0.0
 11
-76.2
 21
-609.6
 31
0.0
  0
LINE
  8
0
 10
-76.2
 20
-609.6
 30
0.0
 11
127
 21
-609.6
 31
0.0
  0
LINE
  8
0
 10
127
 20
-609.6
 30
0.0
 11
76.2
 21
-660.4
 31
0.0
  0
LINE
  8
0
 10
76.2
 20
-660.4
 30
0.0
 11
-25.4
 21
-660.4
 31
0.0
  0
LINE
  8
0
 10
-25.4
 20
-660.4
 30
0.0
 11
25.4
 21
-711.2
 31
0.0
  0
CIRCLE
  8
0
 10
1000
 20
7000
 30
0.0
 40
100
  0
CIRCLE
  8
0
 10
2000
 20
7000
 30
0.0
 40
100
  0
CIRCLE
  8
0
 10
3000
 20
7000
 30
0.0
 40
100
  0
CIRCLE
  8
0
 10
100
 20
100
 30
0.0
 40
126
  0
CIRCLE
  8
0
 10
200
 20
200
 30
0.0
 40
200
  0
CIRCLE
  8
0
 10
300
 20
300
 30
0.0
 40
200
  0
CIRCLE
  8
0
 10
350
 20
350
 30
0.0
 40
200
  0
CIRCLE
  8
0
 10
360
 20
360
 30
0.0
 40
200
  0
CIRCLE
  8
0
 10
370
 20
370
 30
0.0
 40
200
  0
ENDSEC
  0
EOF
