  0
SECTION
  2
ENTITIES
  0
LINE
  8
0
 10
0
 20
254
 30
0.0
 11
762
 21
-762
 31
0.0
  0
LINE
  8
0
 10
762
 20
-762
 30
0.0
 11
0
 21
-1778
 31
0.0
  0
CIRCLE
  8
0
 10
1000
 20
6000
 30
0.0
 40
100
  0
CIRCLE
  8
0
 10
1000
 20
8000
 30
0.0
 40
100
  0
CIRCLE
  8
0
 10
2500
 20
6000
 30
0.0
 40
100
  0
CIRCLE
  8
0
 10
2500
 20
8000
 30
0.0
 40
100
  0
CIRCLE
  8
0
 10
100
 20
100
 30
0.0
 40
131
  0
CIRCLE
  8
0
 10
200
 20
200
 30
0.0
 40
202
  0
CIRCLE
  8
0
 10
300
 20
300
 30
0.0
 40
190
  0
CIRCLE
  8
0
 10
350
 20
350
 30
0.0
 40
211
  0
CIRCLE
  8
0
 10
360
 20
360
 30
0.0
 40
200
  0
CIRCLE
  8
0
 10
370
 20
370
 30
0.0
 40
200
  0
ENDSEC
  0
EOF
