  0
SECTION
  2
ENTITIES
  0
LINE
  8
0
 10
5660.467
 20
3201.493
 30
0.0
 11
5660.467
 21
3049.094
 31
0.0
  0
LINE
  8
0
 10
5660.467
 20
3049.094
 30
0.0
 11
5716.347
 21
3003.374
 31
0.0
  0
LINE
  8
0
 10
5716.347
 20
3003.374
 30
0.0
 11
5604.587
 21
3003.374
 31
0.0
  0
LINE
  8
0
 10
5604.587
 20
3003.374
 30
0.0
 11
5548.707
 21
2957.654
 31
0.0
  0
LINE
  8
0
 10
5548.707
 20
2957.654
 30
0.0
 11
5772.227
 21
2957.654
 31
0.0
  0
LINE
  8
0
 10
5772.227
 20
2957.654
 30
0.0
 11
5828.107
 21
2911.934
 31
0.0
  0
LINE
  8
0
 10
5828.107
 20
2911.934
 30
0.0
 11
5492.827
 21
2911.934
 31
0.0
  0
LINE
  8
0
 10
5492.827
 20
2911.934
 30
0.0
 11
5436.947
 21
2866.213
 31
0.0
  0
LINE
  8
0
 10
5436.947
 20
2866.213
 30
0.0
 11
5883.987
 21
2866.213
 31
0.0
  0
LINE
  8
0
 10
5883.987
 20
2866.213
 30
0.0
 11
5883.987
 21
2820.493
 31
0.0
  0
LINE
  8
0
 10
5883.987
 20
2820.493
 30
0.0
 11
5436.947
 21
2820.493
 31
0.0
  0
LINE
  8
0
 10
5436.947
 20
2820.493
 30
0.0
 11
5436.947
 21
2774.773
 31
0.0
  0
LINE
  8
0
 10
5436.947
 20
2774.773
 30
0.0
 11
5883.987
 21
2774.773
 31
0.0
  0
LINE
  8
0
 10
5883.987
 20
2774.773
 30
0.0
 11
5828.107
 21
2729.053
 31
0.0
  0
LINE
  8
0
 10
5828.107
 20
2729.053
 30
0.0
 11
5492.827
 21
2729.053
 31
0.0
  0
LINE
  8
0
 10
5492.827
 20
2729.053
 30
0.0
 11
5548.707
 21
2683.333
 31
0.0
  0
LINE
  8
0
 10
5548.707
 20
2683.333
 30
0.0
 11
5772.227
 21
2683.333
 31
0.0
  0
LINE
  8
0
 10
5772.227
 20
2683.333
 30
0.0
 11
5716.347
 21
2637.614
 31
0.0
  0
LINE
  8
0
 10
5716.347
 20
2637.614
 30
0.0
 11
5604.587
 21
2637.614
 31
0.0
  0
LINE
  8
0
 10
5604.587
 20
2637.614
 30
0.0
 11
5660.467
 21
2591.894
 31
0.0
  0
LINE
  8
0
 10
5660.467
 20
2591.894
 30
0.0
 11
5660.467
 21
2439.493
 31
0.0
  0
LINE
  8
0
 10
5660.467
 20
2439.493
 30
0.0
 11
6046.547
 21
2128.596
 31
0.0
  0
LINE
  8
0
 10
6046.547
 20
2128.596
 30
0.0
 11
6046.547
 21
1976.197
 31
0.0
  0
LINE
  8
0
 10
6046.547
 20
1976.197
 30
0.0
 11
5660.467
 21
1665.301
 31
0.0
  0
LINE
  8
0
 10
5660.467
 20
1665.301
 30
0.0
 11
5274.387
 21
1354.405
 31
0.0
  0
LINE
  8
0
 10
5274.387
 20
1354.405
 30
0.0
 11
5274.387
 21
1202.005
 31
0.0
  0
LINE
  8
0
 10
5274.387
 20
1202.005
 30
0.0
 11
5660.467
 21
891.1093
 31
0.0
  0
CIRCLE
  8
0
 10
1000
 20
7000
 30
0.0
 40
100
  0
CIRCLE
  8
0
 10
1000
 20
8000
 30
0.0
 40
100
  0
CIRCLE
  8
0
 10
2500
 20
7000
 30
0.0
 40
100
  0
CIRCLE
  8
0
 10
2500
 20
8000
 30
0.0
 40
100
  0
CIRCLE
  8
0
 10
100
 20
100
 30
0.0
 40
125
  0
CIRCLE
  8
0
 10
200
 20
200
 30
0.0
 40
200
  0
CIRCLE
  8
0
 10
300
 20
300
 30
0.0
 40
200
  0
CIRCLE
  8
0
 10
350
 20
350
 30
0.0
 40
200
  0
CIRCLE
  8
0
 10
360
 20
360
 30
0.0
 40
200
  0
CIRCLE
  8
0
 10
370
 20
370
 30
0.0
 40
200
  0
ENDSEC
  0
EOF
