  0
SECTION
  2
ENTITIES
  0
LINE
  8
0
 10
25.4
 20
558.8
 30
0.0
 11
25.4
 21
304.8
 31
0.0
  0
LINE
  8
0
 10
25.4
 20
304.8
 30
0.0
 11
25.4
 21
50.8
 31
0.0
  0
LINE
  8
0
 10
25.4
 20
50.8
 30
0.0
 11
-1.271566E-07
 21
25.4
 31
0.0
  0
LINE
  8
0
 10
-1.271566E-07
 20
25.4
 30
0.0
 11
50.8
 21
25.4
 31
0.0
  0
LINE
  8
0
 10
50.8
 20
25.4
 30
0.0
 11
76.2
 21
-1.525879E-06
 31
0.0
  0
LINE
  8
0
 10
76.2
 20
-1.525879E-06
 30
0.0
 11
-25.4
 21
-1.525879E-06
 31
0.0
  0
LINE
  8
0
 10
-25.4
 20
-1.525879E-06
 30
0.0
 11
-50.8
 21
-25.4
 31
0.0
  0
LINE
  8
0
 10
-50.8
 20
-25.4
 30
0.0
 11
101.6
 21
-25.4
 31
0.0
  0
LINE
  8
0
 10
101.6
 20
-25.4
 30
0.0
 11
127
 21
-50.8
 31
0.0
  0
LINE
  8
0
 10
127
 20
-50.8
 30
0.0
 11
-76.2
 21
-50.8
 31
0.0
  0
LINE
  8
0
 10
-76.2
 20
-50.8
 30
0.0
 11
-101.6
 21
-76.2
 31
0.0
  0
LINE
  8
0
 10
-101.6
 20
-76.2
 30
0.0
 11
-355.6
 21
-76.20001
 31
0.0
  0
LINE
  8
0
 10
-355.6
 20
-76.20001
 30
0.0
 11
-101.6
 21
-76.2
 31
0.0
  0
LINE
  8
0
 10
-101.6
 20
-76.2
 30
0.0
 11
152.4
 21
-76.2
 31
0.0
  0
LINE
  8
0
 10
152.4
 20
-76.2
 30
0.0
 11
127
 21
-101.6
 31
0.0
  0
LINE
  8
0
 10
127
 20
-101.6
 30
0.0
 11
-76.2
 21
-101.6
 31
0.0
  0
LINE
  8
0
 10
-76.2
 20
-101.6
 30
0.0
 11
-50.8
 21
-127
 31
0.0
  0
LINE
  8
0
 10
-50.8
 20
-127
 30
0.0
 11
101.6
 21
-127
 31
0.0
  0
LINE
  8
0
 10
101.6
 20
-127
 30
0.0
 11
76.2
 21
-152.4
 31
0.0
  0
LINE
  8
0
 10
76.2
 20
-152.4
 30
0.0
 11
-25.4
 21
-152.4
 31
0.0
  0
LINE
  8
0
 10
-25.4
 20
-152.4
 30
0.0
 11
-1.271566E-07
 21
-177.8
 31
0.0
  0
LINE
  8
0
 10
-1.271566E-07
 20
-177.8
 30
0.0
 11
50.8
 21
-177.8
 31
0.0
  0
LINE
  8
0
 10
50.8
 20
-177.8
 30
0.0
 11
25.4
 21
-203.2
 31
0.0
  0
CIRCLE
  8
0
 10
1000
 20
7000
 30
0.0
 40
100
  0
CIRCLE
  8
0
 10
2000
 20
7000
 30
0.0
 40
100
  0
CIRCLE
  8
0
 10
3000
 20
7000
 30
0.0
 40
100
  0
CIRCLE
  8
0
 10
100
 20
100
 30
0.0
 40
126
  0
CIRCLE
  8
0
 10
200
 20
200
 30
0.0
 40
200
  0
CIRCLE
  8
0
 10
300
 20
300
 30
0.0
 40
200
  0
CIRCLE
  8
0
 10
350
 20
350
 30
0.0
 40
200
  0
CIRCLE
  8
0
 10
360
 20
360
 30
0.0
 40
200
  0
CIRCLE
  8
0
 10
370
 20
370
 30
0.0
 40
200
  0
ENDSEC
  0
EOF
