  0
SECTION
  2
ENTITIES
  0
ARC
  8
0
 10
156.6407
 20
63.50002
 30
0.0
 40
246.6304
 50
129.4291
 51
230.5709
  0
LINE
  8
0
 10
-4.566783E-04
 20
-126.9996
 30
0.0
 11
507.9991
 21
-127
 31
0.0
  0
ARC
  8
0
 10
664.6393
 20
-317.5004
 30
0.0
 40
246.6304
 50
129.4291
 51
230.5709
  0
LINE
  8
0
 10
507.9982
 20
-508
 30
0.0
 11
-1.306212E-03
 21
-507.9996
 31
0.0
  0
CIRCLE
  8
0
 10
1000
 20
7000
 30
0.0
 40
100
  0
CIRCLE
  8
0
 10
2000
 20
7000
 30
0.0
 40
100
  0
CIRCLE
  8
0
 10
100
 20
100
 30
0.0
 40
126
  0
CIRCLE
  8
0
 10
200
 20
200
 30
0.0
 40
200
  0
CIRCLE
  8
0
 10
300
 20
300
 30
0.0
 40
200
  0
CIRCLE
  8
0
 10
350
 20
350
 30
0.0
 40
200
  0
CIRCLE
  8
0
 10
360
 20
360
 30
0.0
 40
200
  0
CIRCLE
  8
0
 10
370
 20
370
 30
0.0
 40
200
  0
ENDSEC
  0
EOF
