  0
SECTION
  2
ENTITIES
  0
ARC
  8
0
 10
5551.009
 20
2666.746
 30
0.0
 40
99.99986
 50
132.6843
 51
270.1599
  0
ARC
  8
0
 10
5558.069
 20
2423.486
 30
0.0
 40
143.4298
 50
273.623
 51
92.82187
  0
ARC
  8
0
 10
5603.318
 20
2056.287
 30
0.0
 40
226.9592
 50
99.17438
 51
209.6289
  0
ARC
  8
0
 10
5265.98
 20
1869.828
 30
0.0
 40
158.5279
 50
318.4826
 51
27.93035
  0
ARC
  8
0
 10
5758.41
 20
1959.707
 30
0.0
 40
421.5231
 50
207.5481
 51
220.4316
  0
ARC
  8
0
 10
5478.128
 20
1694.627
 30
0.0
 40
41.41645
 50
137.9798
 51
191.5595
  0
ARC
  8
0
 10
5530.81
 20
1655.998
 30
0.0
 40
106.6109
 50
335.2938
 51
141.5075
  0
ARC
  8
0
 10
5692.126
 20
1599.387
 30
0.0
 40
65.5895
 50
169.4193
 51
263.4739
  0
ARC
  8
0
 10
5582.708
 20
1610.638
 30
0.0
 40
127.4098
 50
219.3935
 51
323.1529
  0
ARC
  8
0
 10
5475.36
 20
1620.136
 30
0.0
 40
90.80087
 50
143.7962
 51
275.6217
  0
ARC
  8
0
 10
5435.16
 20
1636.748
 30
0.0
 40
49.64307
 50
87.23409
 51
131.7666
  0
ARC
  8
0
 10
5758.41
 20
1959.707
 30
0.0
 40
421.5231
 50
220.4316
 51
240.0796
  0
ARC
  8
0
 10
5758.41
 20
1959.707
 30
0.0
 40
421.5231
 50
220.4316
 51
240.0796
  0
ARC
  8
0
 10
5758.41
 20
1959.707
 30
0.0
 40
421.5231
 50
207.5481
 51
220.4316
  0
ARC
  8
0
 10
5265.98
 20
1869.828
 30
0.0
 40
158.5279
 50
246.6782
 51
318.4826
  0
ARC
  8
0
 10
5213.788
 20
1846.678
 30
0.0
 40
122.8776
 50
265.0647
 51
341.7666
  0
ARC
  8
0
 10
5356.608
 20
1843.226
 30
0.0
 40
43.65955
 50
158.7364
 51
233.2696
  0
ARC
  8
0
 10
5252.27
 20
1847.438
 30
0.0
 40
64.69657
 50
10.34414
 51
91.19324
  0
ARC
  8
0
 10
5230.809
 20
1982.697
 30
0.0
 40
73.38893
 50
285.9055
 51
50.07621
  0
ARC
  8
0
 10
5325.419
 20
2078.236
 30
0.0
 40
61.63065
 50
156.412
 51
219.5668
  0
LINE
  8
0
 10
5268.938
 20
2102.907
 30
0.0
 11
5277.068
 21
2126.125
 31
0.0
  0
ARC
  8
0
 10
5253.988
 20
2168.447
 30
0.0
 40
48.20727
 50
188.9479
 51
298.6057
  0
ARC
  8
0
 10
5144.37
 20
2129.656
 30
0.0
 40
69.45114
 50
26.77806
 51
136.4047
  0
ARC
  8
0
 10
5070.989
 20
2154.267
 30
0.0
 40
32.78736
 50
45.24317
 51
157.1895
  0
ARC
  8
0
 10
4839.969
 20
2102.316
 30
0.0
 40
210.9531
 50
342.1497
 51
17.85024
  0
ARC
  8
0
 10
4975.8
 20
1977.018
 30
0.0
 40
88.86328
 50
0
 51
43.02688
  0
ARC
  8
0
 10
5196.488
 20
1974.568
 30
0.0
 40
131.8528
 50
139.9111
 51
178.9371
  0
ARC
  8
0
 10
5100.686
 20
2056.257
 30
0.0
 40
6.010461
 50
319.9584
 51
147.5802
  0
ARC
  8
0
 10
5167.239
 20
2020.887
 30
0.0
 40
69.49419
 50
153.0448
 51
188.607
  0
ARC
  8
0
 10
5074.253
 20
2099.946
 30
0.0
 40
92.69012
 50
285.1821
 51
323.5532
  0
ARC
  8
0
 10
5156.439
 20
2040.458
 30
0.0
 40
8.818966
 50
300.1371
 51
149.9114
  0
ARC
  8
0
 10
5201.937
 20
1954.127
 30
0.0
 40
88.77465
 50
117.554
 51
161.2711
  0
ARC
  8
0
 10
5135.79
 20
2033.968
 30
0.0
 40
54.37357
 50
250.7497
 51
292.7902
  0
ARC
  8
0
 10
5161.068
 20
1978.096
 30
0.0
 40
7.119959
 50
271.6175
 51
126.3532
  0
ARC
  8
0
 10
5119.041
 20
2071.247
 30
0.0
 40
108.7939
 50
240.0121
 51
292.8428
  0
ARC
  8
0
 10
4975.8
 20
1977.018
 30
0.0
 40
88.86328
 50
307.987
 51
0
  0
ARC
  8
0
 10
5111.729
 20
1966.337
 30
0.0
 40
100.6109
 50
134.8599
 51
216.1541
  0
ARC
  8
0
 10
4839.969
 20
2102.316
 30
0.0
 40
210.9531
 50
342.1497
 51
17.85024
  0
ARC
  8
0
 10
4996.39
 20
2151.147
 30
0.0
 40
47.11516
 50
19.63193
 51
100.8373
  0
ARC
  8
0
 10
4984.359
 20
2218.256
 30
0.0
 40
21.0766
 50
183.4903
 51
278.6329
  0
ARC
  8
0
 10
4931.709
 20
2233.646
 30
0.0
 40
35.74457
 50
259.3
 51
332.1992
  0
ARC
  8
0
 10
4920.93
 20
2142.707
 30
0.0
 40
55.97433
 50
85.75941
 51
154.3009
  0
ARC
  8
0
 10
4667.222
 20
2253.607
 30
0.0
 40
220.964
 50
336.9185
 51
360
  0
ARC
  8
0
 10
4911.518
 20
2342.396
 30
0.0
 40
91.81139
 50
255.2751
 51
102.7919
  0
ARC
  8
0
 10
4785.533
 20
2350.677
 30
0.0
 40
133.2904
 50
37.55986
 51
114.387
  0
ARC
  8
0
 10
4731.961
 20
2421.165
 30
0.0
 40
50.92929
 50
319.4392
 51
91.65079
  0
ARC
  8
0
 10
4829.042
 20
2320.497
 30
0.0
 40
89.28986
 50
130.8373
 51
221.1586
  0
ARC
  8
0
 10
4829.042
 20
2320.497
 30
0.0
 40
89.28986
 50
221.1586
 51
311.4798
  0
ARC
  8
0
 10
4761.82
 20
2296.857
 30
0.0
 40
133.5651
 50
341.1051
 51
68.03805
  0
ARC
  8
0
 10
4761.82
 20
2296.857
 30
0.0
 40
133.5651
 50
341.1051
 51
68.03805
  0
ARC
  8
0
 10
4667.222
 20
2253.607
 30
0.0
 40
220.964
 50
336.9185
 51
360
  0
ARC
  8
0
 10
4755.312
 20
2001.057
 30
0.0
 40
201.9788
 50
55.23059
 51
79.85915
  0
ARC
  8
0
 10
4694.111
 20
2192.165
 30
0.0
 40
97.07501
 50
4.556677
 51
45.77229
  0
ARC
  8
0
 10
4692.48
 20
2191.225
 30
0.0
 40
98.88516
 50
45.48193
 51
166.1308
  0
ARC
  8
0
 10
4511.927
 20
2250.936
 30
0.0
 40
91.90126
 50
252.3573
 51
336.9336
  0
ARC
  8
0
 10
4439.321
 20
1975.418
 30
0.0
 40
193.2002
 50
47.85497
 51
76.60411
  0
ARC
  8
0
 10
4658.423
 20
2218.007
 30
0.0
 40
133.6924
 50
227.9977
 51
352.2079
  0
ARC
  8
0
 10
4755.312
 20
2001.057
 30
0.0
 40
201.9788
 50
79.85915
 51
111.0957
  0
ARC
  8
0
 10
4755.312
 20
2001.057
 30
0.0
 40
201.9788
 50
79.85915
 51
111.0957
  0
ARC
  8
0
 10
4755.312
 20
2001.057
 30
0.0
 40
201.9788
 50
55.23059
 51
79.85915
  0
ARC
  8
0
 10
4893.519
 20
2101.967
 30
0.0
 40
68.96881
 50
109.5076
 51
191.8
  0
ARC
  8
0
 10
4802.49
 20
2020.367
 30
0.0
 40
71.47324
 50
70.78784
 51
217.9052
  0
ARC
  8
0
 10
4724.051
 20
1972.166
 30
0.0
 40
22.46502
 50
286.6743
 51
11.01119
  0
ARC
  8
0
 10
4722.118
 20
1922.467
 30
0.0
 40
29.39845
 50
15.6623
 51
73.44866
  0
ARC
  8
0
 10
4793.788
 20
1906.187
 30
0.0
 40
49.6666
 50
150.8224
 51
223.6961
  0
ARC
  8
0
 10
4806.888
 20
1949.267
 30
0.0
 40
91.59749
 50
237.6548
 51
300.5606
  0
ARC
  8
0
 10
5362.859
 20
1264.038
 30
0.0
 40
791.9233
 50
125.7214
 51
130.0336
  0
ARC
  8
0
 10
4965.487
 20
1692.687
 30
0.0
 40
223.9328
 50
93.84454
 51
106.8738
  0
ARC
  8
0
 10
5004.237
 20
1918.626
 30
0.0
 40
53.81645
 50
82.4826
 51
182.6719
  0
ARC
  8
0
 10
5144.34
 20
2040.807
 30
0.0
 40
149.8098
 50
172.5294
 51
207.3532
  0
ARC
  8
0
 10
4985.019
 20
2058.617
 30
0.0
 40
10.9093
 50
8.821568
 51
194.796
  0
ARC
  8
0
 10
4714.13
 20
2010.436
 30
0.0
 40
264.2744
 50
352.3058
 51
9.88938
  0
ARC
  8
0
 10
5072.451
 20
2088.707
 30
0.0
 40
149.046
 50
192.5318
 51
229.6874
  0
ARC
  8
0
 10
4915.589
 20
2054.147
 30
0.0
 40
11.58165
 50
11.06921
 51
198.624
  0
LINE
  8
0
 10
4904.607
 20
2050.446
 30
0.0
 11
4948.808
 21
1951.096
 31
0.0
  0
ARC
  8
0
 10
5084.208
 20
2276.905
 30
0.0
 40
352.826
 50
229.3065
 51
247.433
  0
ARC
  8
0
 10
4848.871
 20
2000.396
 30
0.0
 40
10.43467
 50
59.51735
 51
256.3765
  0
LINE
  8
0
 10
4846.42
 20
1990.258
 30
0.0
 11
4927.381
 21
1937.427
 31
0.0
  0
LINE
  8
0
 10
4927.381
 20
1937.427
 30
0.0
 11
4821.961
 21
1919.197
 31
0.0
  0
ARC
  8
0
 10
4828.251
 20
1909.407
 30
0.0
 40
11.63713
 50
122.6996
 51
286.4125
  0
ARC
  8
0
 10
5049.261
 20
853.7576
 30
0.0
 40
1066.933
 50
95.31223
 51
101.7747
  0
ARC
  8
0
 10
4965.487
 20
1692.687
 30
0.0
 40
223.9328
 50
73.1262
 51
93.84454
  0
ARC
  8
0
 10
4965.487
 20
1953.177
 30
0.0
 40
79.74648
 50
215.4046
 51
324.5955
  0
ARC
  8
0
 10
5362.859
 20
1264.038
 30
0.0
 40
791.9233
 50
125.7214
 51
130.0336
  0
ARC
  8
0
 10
4806.888
 20
1949.267
 30
0.0
 40
91.59749
 50
237.6548
 51
300.5606
  0
ARC
  8
0
 10
4774.532
 20
1831.116
 30
0.0
 40
44.03116
 50
112.2142
 51
240.3793
  0
ARC
  8
0
 10
4743.291
 20
1757.936
 30
0.0
 40
36.16519
 50
348.836
 51
74.80531
  0
ARC
  8
0
 10
4819.959
 20
1728.156
 30
0.0
 40
47.068
 50
151.052
 51
295.2033
  0
ARC
  8
0
 10
4869.71
 20
1659.687
 30
0.0
 40
39.40784
 50
46.10735
 51
138.9406
  0
ARC
  8
0
 10
4964.409
 20
1695.207
 30
0.0
 40
67.75225
 50
85.27831
 51
186.035
  0
ARC
  8
0
 10
5087.261
 20
1745.898
 30
0.0
 40
118.4746
 50
122.3616
 51
171.8346
  0
ARC
  8
0
 10
4792.299
 20
1902.068
 30
0.0
 40
238.2393
 50
346.382
 51
1.180648
  0
ARC
  8
0
 10
5165.465
 20
1902.137
 30
0.0
 40
135.0583
 50
177.9455
 51
237.6217
  0
ARC
  8
0
 10
5089.828
 20
1775.527
 30
0.0
 40
12.97928
 50
271.8068
 51
75.21619
  0
ARC
  8
0
 10
5095.092
 20
1813.597
 30
0.0
 40
51.28041
 50
195.0866
 51
264.5762
  0
ARC
  8
0
 10
5185.959
 20
1757.387
 30
0.0
 40
146.7816
 50
163.0192
 51
186.8487
  0
ARC
  8
0
 10
5026.39
 20
1742.277
 30
0.0
 40
14.03911
 50
180
 51
350.1936
  0
ARC
  8
0
 10
5700.349
 20
1718.398
 30
0.0
 40
688.4117
 50
169.3204
 51
178.0126
  0
ARC
  8
0
 10
4815.039
 20
1874.806
 30
0.0
 40
210.7851
 50
307.661
 51
352.1385
  0
ARC
  8
0
 10
4896.2
 20
1755.127
 30
0.0
 40
67.05445
 50
270.7185
 51
315.2689
  0
ARC
  8
0
 10
4896.2
 20
1755.127
 30
0.0
 40
67.05445
 50
270.7185
 51
315.2689
  0
ARC
  8
0
 10
4970.628
 20
1691.827
 30
0.0
 40
31.2702
 50
148.9861
 51
295.2962
  0
ARC
  8
0
 10
4994.636
 20
1651.468
 30
0.0
 40
16.10932
 50
344.4144
 51
131.3793
  0
ARC
  8
0
 10
5042.421
 20
1641.696
 30
0.0
 40
32.71411
 50
170.4249
 51
288.4205
  0
ARC
  8
0
 10
5067.356
 20
1550.768
 30
0.0
 40
61.65081
 50
48.55418
 51
103.7028
  0
ARC
  8
0
 10
5042.392
 20
1745.227
 30
0.0
 40
162.1863
 50
293.9258
 51
94.20614
  0
ARC
  8
0
 10
5084.448
 20
1850.787
 30
0.0
 40
77.90155
 50
50.48343
 51
133.8409
  0
ARC
  8
0
 10
5184.129
 20
1952.827
 30
0.0
 40
65.34632
 50
219.9344
 51
318.2768
  0
ARC
  8
0
 10
5230.809
 20
1982.697
 30
0.0
 40
73.38893
 50
271.6306
 51
285.9055
  0
ARC
  8
0
 10
5252.27
 20
1847.438
 30
0.0
 40
64.69657
 50
10.34414
 51
91.19324
  0
ARC
  8
0
 10
5356.608
 20
1843.226
 30
0.0
 40
43.65955
 50
158.7364
 51
233.2696
  0
ARC
  8
0
 10
5213.788
 20
1846.678
 30
0.0
 40
122.8776
 50
265.0647
 51
341.7666
  0
ARC
  8
0
 10
5135.419
 20
1650.747
 30
0.0
 40
99.99986
 50
269.8402
 51
47.31573
  0
ARC
  8
0
 10
5128.358
 20
1407.489
 30
0.0
 40
143.4298
 50
87.17812
 51
266.377
  0
ARC
  8
0
 10
5083.108
 20
1040.287
 30
0.0
 40
226.9592
 50
330.3711
 51
80.82561
  0
ARC
  8
0
 10
5420.457
 20
853.8271
 30
0.0
 40
158.5279
 50
152.0698
 51
221.5181
  0
ARC
  8
0
 10
4928.021
 20
943.7094
 30
0.0
 40
421.5231
 50
319.5684
 51
332.4519
  0
ARC
  8
0
 10
5208.298
 20
678.6274
 30
0.0
 40
41.41645
 50
348.4405
 51
42.02018
  0
ARC
  8
0
 10
5155.627
 20
639.999
 30
0.0
 40
106.6109
 50
38.49251
 51
204.7061
  0
ARC
  8
0
 10
4994.3
 20
583.3984
 30
0.0
 40
65.5895
 50
276.5262
 51
10.58071
  0
ARC
  8
0
 10
5103.719
 20
594.6393
 30
0.0
 40
127.4098
 50
216.8472
 51
320.6064
  0
ARC
  8
0
 10
5211.067
 20
604.1386
 30
0.0
 40
90.80087
 50
264.3783
 51
36.20374
  0
ARC
  8
0
 10
5251.268
 20
620.7492
 30
0.0
 40
49.64307
 50
48.23339
 51
92.76589
  0
ARC
  8
0
 10
4928.021
 20
943.7094
 30
0.0
 40
421.5231
 50
299.9205
 51
319.5684
  0
ARC
  8
0
 10
4928.021
 20
943.7094
 30
0.0
 40
421.5231
 50
299.9205
 51
319.5684
  0
ARC
  8
0
 10
4928.021
 20
943.7094
 30
0.0
 40
421.5231
 50
319.5684
 51
332.4519
  0
ARC
  8
0
 10
5420.457
 20
853.8271
 30
0.0
 40
158.5279
 50
221.5181
 51
293.3213
  0
ARC
  8
0
 10
5472.649
 20
830.6783
 30
0.0
 40
122.8776
 50
198.2334
 51
274.9353
  0
ARC
  8
0
 10
5329.819
 20
827.2289
 30
0.0
 40
43.65955
 50
306.7304
 51
21.26366
  0
ARC
  8
0
 10
5434.158
 20
831.4384
 30
0.0
 40
64.69657
 50
88.80681
 51
169.6559
  0
ARC
  8
0
 10
5455.619
 20
966.6984
 30
0.0
 40
73.38893
 50
129.9238
 51
254.0945
  0
ARC
  8
0
 10
5361.008
 20
1062.238
 30
0.0
 40
61.63065
 50
320.4332
 51
23.58795
  0
LINE
  8
0
 10
5417.488
 20
1086.908
 30
0.0
 11
5409.349
 21
1110.118
 31
0.0
  0
ARC
  8
0
 10
5432.439
 20
1152.448
 30
0.0
 40
48.20727
 50
241.3943
 51
351.0521
  0
ARC
  8
0
 10
5542.059
 20
1113.658
 30
0.0
 40
69.45114
 50
43.59529
 51
153.2219
  0
ARC
  8
0
 10
5615.438
 20
1138.268
 30
0.0
 40
32.78736
 50
22.81052
 51
134.7569
  0
ARC
  8
0
 10
5846.457
 20
1086.318
 30
0.0
 40
210.9531
 50
162.1497
 51
197.8502
  0
ARC
  8
0
 10
5710.627
 20
961.0181
 30
0.0
 40
88.86328
 50
136.9731
 51
180
  0
ARC
  8
0
 10
5489.939
 20
958.567
 30
0.0
 40
131.8528
 50
1.06285
 51
40.08888
  0
ARC
  8
0
 10
5585.74
 20
1040.259
 30
0.0
 40
6.010461
 50
32.41986
 51
220.0416
  0
ARC
  8
0
 10
5519.188
 20
1004.889
 30
0.0
 40
69.49419
 50
351.393
 51
26.95526
  0
ARC
  8
0
 10
5612.18
 20
1083.949
 30
0.0
 40
92.69012
 50
216.4468
 51
254.818
  0
ARC
  8
0
 10
5529.979
 20
1024.458
 30
0.0
 40
8.818966
 50
30.08856
 51
239.863
  0
ARC
  8
0
 10
5484.491
 20
938.1282
 30
0.0
 40
88.77465
 50
18.72892
 51
62.44603
  0
ARC
  8
0
 10
5550.637
 20
1017.969
 30
0.0
 40
54.37357
 50
247.2098
 51
289.2503
  0
ARC
  8
0
 10
5525.36
 20
962.0975
 30
0.0
 40
7.119959
 50
53.64684
 51
268.3825
  0
ARC
  8
0
 10
5567.391
 20
1055.249
 30
0.0
 40
108.7939
 50
247.1572
 51
299.9879
  0
ARC
  8
0
 10
5710.627
 20
961.0181
 30
0.0
 40
88.86328
 50
180
 51
232.013
  0
ARC
  8
0
 10
5574.701
 20
950.3376
 30
0.0
 40
100.6109
 50
323.8459
 51
45.14016
  0
ARC
  8
0
 10
5846.457
 20
1086.318
 30
0.0
 40
210.9531
 50
162.1497
 51
197.8502
  0
ARC
  8
0
 10
5690.037
 20
1135.149
 30
0.0
 40
47.11516
 50
79.16272
 51
160.3681
  0
ARC
  8
0
 10
5702.058
 20
1202.258
 30
0.0
 40
21.0766
 50
261.3671
 51
356.5097
  0
ARC
  8
0
 10
5754.718
 20
1217.649
 30
0.0
 40
35.74457
 50
207.8008
 51
280.7
  0
ARC
  8
0
 10
5765.502
 20
1126.708
 30
0.0
 40
55.97433
 50
25.69908
 51
94.24057
  0
ARC
  8
0
 10
6019.207
 20
1237.609
 30
0.0
 40
220.964
 50
180
 51
203.0816
  0
ARC
  8
0
 10
5774.91
 20
1326.397
 30
0.0
 40
91.81139
 50
77.20807
 51
284.7249
  0
ARC
  8
0
 10
5900.896
 20
1334.678
 30
0.0
 40
133.2904
 50
65.61295
 51
142.4402
  0
ARC
  8
0
 10
5954.47
 20
1405.168
 30
0.0
 40
50.92929
 50
88.34918
 51
220.5608
  0
ARC
  8
0
 10
5857.39
 20
1304.498
 30
0.0
 40
89.28986
 50
318.8415
 51
49.16268
  0
ARC
  8
0
 10
5857.39
 20
1304.498
 30
0.0
 40
89.28986
 50
228.5202
 51
318.8415
  0
ARC
  8
0
 10
5924.606
 20
1280.857
 30
0.0
 40
133.5651
 50
111.9619
 51
198.8949
  0
ARC
  8
0
 10
5924.606
 20
1280.857
 30
0.0
 40
133.5651
 50
111.9619
 51
198.8949
  0
ARC
  8
0
 10
6019.207
 20
1237.609
 30
0.0
 40
220.964
 50
180
 51
203.0816
  0
ARC
  8
0
 10
5931.121
 20
985.0582
 30
0.0
 40
201.9788
 50
100.1408
 51
124.7694
  0
ARC
  8
0
 10
5992.316
 20
1176.168
 30
0.0
 40
97.07501
 50
134.2277
 51
175.4433
  0
ARC
  8
0
 10
5993.938
 20
1175.228
 30
0.0
 40
98.88516
 50
13.86919
 51
134.518
  0
ARC
  8
0
 10
6174.5
 20
1234.937
 30
0.0
 40
91.90126
 50
203.0664
 51
287.6427
  0
ARC
  8
0
 10
6247.117
 20
959.4196
 30
0.0
 40
193.2002
 50
103.3959
 51
132.145
  0
ARC
  8
0
 10
6028.02
 20
1202.007
 30
0.0
 40
133.6924
 50
187.7922
 51
312.0023
  0
ARC
  8
0
 10
5931.121
 20
985.0582
 30
0.0
 40
201.9788
 50
68.9043
 51
100.1408
  0
ARC
  8
0
 10
5931.121
 20
985.0582
 30
0.0
 40
201.9788
 50
68.9043
 51
100.1408
  0
ARC
  8
0
 10
5931.121
 20
985.0582
 30
0.0
 40
201.9788
 50
100.1408
 51
124.7694
  0
ARC
  8
0
 10
5792.899
 20
1085.967
 30
0.0
 40
68.96881
 50
348.1999
 51
70.49242
  0
ARC
  8
0
 10
5883.928
 20
1004.368
 30
0.0
 40
71.47324
 50
322.0947
 51
109.2121
  0
ARC
  8
0
 10
5962.379
 20
956.1673
 30
0.0
 40
22.46502
 50
168.9888
 51
253.3256
  0
ARC
  8
0
 10
5964.309
 20
906.4694
 30
0.0
 40
29.39845
 50
106.5513
 51
164.3377
  0
ARC
  8
0
 10
5892.64
 20
890.1873
 30
0.0
 40
49.6666
 50
316.3039
 51
29.17756
  0
ARC
  8
0
 10
5879.539
 20
933.2685
 30
0.0
 40
91.59749
 50
239.4393
 51
302.3452
  0
ARC
  8
0
 10
5323.568
 20
248.0392
 30
0.0
 40
791.9233
 50
49.96645
 51
54.27861
  0
ARC
  8
0
 10
5720.939
 20
676.6888
 30
0.0
 40
223.9328
 50
73.1262
 51
86.15549
  0
ARC
  8
0
 10
5682.19
 20
902.6284
 30
0.0
 40
53.81645
 50
357.3281
 51
97.51737
  0
ARC
  8
0
 10
5542.088
 20
1024.808
 30
0.0
 40
149.8098
 50
332.6469
 51
7.470602
  0
ARC
  8
0
 10
5701.409
 20
1042.618
 30
0.0
 40
10.9093
 50
345.204
 51
171.1784
  0
ARC
  8
0
 10
5972.296
 20
994.4377
 30
0.0
 40
264.2744
 50
170.1106
 51
187.6942
  0
ARC
  8
0
 10
5613.977
 20
1072.708
 30
0.0
 40
149.046
 50
310.3126
 51
347.4681
  0
ARC
  8
0
 10
5770.838
 20
1038.147
 30
0.0
 40
11.58165
 50
341.376
 51
168.9308
  0
LINE
  8
0
 10
5781.819
 20
1034.447
 30
0.0
 11
5737.62
 21
935.0974
 31
0.0
  0
ARC
  8
0
 10
5602.219
 20
1260.907
 30
0.0
 40
352.826
 50
292.567
 51
310.6935
  0
ARC
  8
0
 10
5837.555
 20
984.3986
 30
0.0
 40
10.43467
 50
283.6235
 51
120.4826
  0
LINE
  8
0
 10
5840.007
 20
974.2592
 30
0.0
 11
5759.05
 21
921.4288
 31
0.0
  0
LINE
  8
0
 10
5759.05
 20
921.4288
 30
0.0
 11
5864.47
 21
903.1978
 31
0.0
  0
ARC
  8
0
 10
5858.177
 20
893.4086
 30
0.0
 40
11.63713
 50
253.5875
 51
57.30041
  0
ARC
  8
0
 10
5637.17
 20
-162.23
 30
0.0
 40
1066.933
 50
78.22536
 51
84.68775
  0
ARC
  8
0
 10
5720.939
 20
676.6888
 30
0.0
 40
223.9328
 50
86.15549
 51
106.8738
  0
ARC
  8
0
 10
5720.939
 20
937.179
 30
0.0
 40
79.74648
 50
215.4046
 51
324.5955
  0
ARC
  8
0
 10
5323.568
 20
248.0392
 30
0.0
 40
791.9233
 50
49.96645
 51
54.27861
  0
ARC
  8
0
 10
5879.539
 20
933.2685
 30
0.0
 40
91.59749
 50
239.4393
 51
302.3452
  0
ARC
  8
0
 10
5911.897
 20
815.1176
 30
0.0
 40
44.03116
 50
299.6207
 51
67.78577
  0
ARC
  8
0
 10
5943.136
 20
741.9385
 30
0.0
 40
36.16519
 50
105.1947
 51
191.164
  0
ARC
  8
0
 10
5866.468
 20
712.1577
 30
0.0
 40
47.068
 50
244.7967
 51
28.94795
  0
ARC
  8
0
 10
5816.716
 20
643.6891
 30
0.0
 40
39.40784
 50
41.05939
 51
133.8927
  0
ARC
  8
0
 10
5722.019
 20
679.2083
 30
0.0
 40
67.75225
 50
353.9651
 51
94.72174
  0
ARC
  8
0
 10
5599.167
 20
729.8993
 30
0.0
 40
118.4746
 50
8.165394
 51
57.63839
  0
ARC
  8
0
 10
5894.127
 20
886.0694
 30
0.0
 40
238.2393
 50
178.8194
 51
193.6181
  0
ARC
  8
0
 10
5520.968
 20
886.1389
 30
0.0
 40
135.0583
 50
302.3783
 51
2.054507
  0
ARC
  8
0
 10
5596.6
 20
759.528
 30
0.0
 40
12.97928
 50
104.7839
 51
268.1932
  0
ARC
  8
0
 10
5591.35
 20
797.6091
 30
0.0
 40
51.28041
 50
275.4238
 51
344.9134
  0
ARC
  8
0
 10
5500.466
 20
741.3873
 30
0.0
 40
146.7816
 50
353.1513
 51
16.98079
  0
ARC
  8
0
 10
5660.037
 20
726.2785
 30
0.0
 40
14.03911
 50
189.8063
 51
0
  0
ARC
  8
0
 10
4986.077
 20
702.3995
 30
0.0
 40
688.4117
 50
1.987464
 51
10.6796
  0
ARC
  8
0
 10
5871.39
 20
858.8093
 30
0.0
 40
210.7851
 50
187.8615
 51
232.339
  0
ARC
  8
0
 10
5790.238
 20
739.1294
 30
0.0
 40
67.05445
 50
224.7311
 51
269.2815
  0
ARC
  8
0
 10
5790.238
 20
739.1294
 30
0.0
 40
67.05445
 50
224.7311
 51
269.2815
  0
ARC
  8
0
 10
5715.798
 20
675.8285
 30
0.0
 40
31.2702
 50
244.7038
 51
31.01389
  0
ARC
  8
0
 10
5691.79
 20
635.4689
 30
0.0
 40
16.10932
 50
48.62074
 51
195.5856
  0
ARC
  8
0
 10
5644.006
 20
625.6978
 30
0.0
 40
32.71411
 50
251.5796
 51
9.57514
  0
ARC
  8
0
 10
5619.069
 20
534.7684
 30
0.0
 40
61.65081
 50
76.29718
 51
131.4458
  0
ARC
  8
0
 10
5644.041
 20
729.2294
 30
0.0
 40
162.1863
 50
85.79385
 51
246.0742
  0
ARC
  8
0
 10
5601.981
 20
834.7885
 30
0.0
 40
77.90155
 50
46.1591
 51
129.5166
  0
ARC
  8
0
 10
5502.296
 20
936.8286
 30
0.0
 40
65.34632
 50
221.7232
 51
320.0656
  0
ARC
  8
0
 10
5455.619
 20
966.6984
 30
0.0
 40
73.38893
 50
254.0945
 51
268.3694
  0
ARC
  8
0
 10
5434.158
 20
831.4384
 30
0.0
 40
64.69657
 50
88.80681
 51
169.6559
  0
ARC
  8
0
 10
5329.819
 20
827.2289
 30
0.0
 40
43.65955
 50
306.7304
 51
21.26366
  0
ARC
  8
0
 10
5472.649
 20
830.6783
 30
0.0
 40
122.8776
 50
198.2334
 51
274.9353
  0
CIRCLE
  8
0
 10
1000
 20
7000
 30
0.0
 40
100
  0
CIRCLE
  8
0
 10
3000
 20
7000
 30
0.0
 40
100
  0
CIRCLE
  8
0
 10
100
 20
100
 30
0.0
 40
125
  0
CIRCLE
  8
0
 10
200
 20
200
 30
0.0
 40
200
  0
CIRCLE
  8
0
 10
300
 20
300
 30
0.0
 40
200
  0
CIRCLE
  8
0
 10
350
 20
350
 30
0.0
 40
200
  0
CIRCLE
  8
0
 10
360
 20
360
 30
0.0
 40
200
  0
CIRCLE
  8
0
 10
370
 20
370
 30
0.0
 40
200
  0
ENDSEC
  0
EOF
