  0
SECTION
  2
ENTITIES
  0
LINE
  8
0
 10
4961.243
 20
1456.611
 30
0.0
 11
5723.241
 21
694.611
 31
0.0
  0
ARC
  8
0
 10
6403.813
 20
762.111
 30
0.0
 40
683.9014
 50
162.7767
 51
185.6642
  0
ARC
  8
0
 10
5611.981
 20
1174.501
 30
0.0
 40
251.5182
 50
258.6807
 51
303.4356
  0
ARC
  8
0
 10
5567.65
 20
964.6111
 30
0.0
 40
37.07517
 50
97.79549
 51
262.2045
  0
ARC
  8
0
 10
5611.981
 20
754.7111
 30
0.0
 40
251.5182
 50
56.56436
 51
101.3194
  0
ARC
  8
0
 10
5849.537
 20
1067.708
 30
0.0
 40
142.9079
 50
226.1731
 51
305.2446
  0
ARC
  8
0
 10
5909.848
 20
971.7173
 30
0.0
 40
30.3364
 50
316.9165
 51
60.03674
  0
ARC
  8
0
 10
5863.527
 20
846.8422
 30
0.0
 40
163.1786
 50
67.86954
 51
133.8023
  0
LINE
  8
0
 10
5750.57
 20
964.6111
 30
0.0
 11
5489.032
 21
1197.191
 31
0.0
  0
ARC
  8
0
 10
5445.863
 20
1231.271
 30
0.0
 40
55.00003
 50
141.7093
 51
321.7093
  0
ARC
  8
0
 10
5445.863
 20
1231.271
 30
0.0
 40
55.00003
 50
321.7093
 51
141.7093
  0
ARC
  8
0
 10
5445.672
 20
1189.931
 30
0.0
 40
43.96145
 50
169.9718
 51
9.501183
  0
ARC
  8
0
 10
5383.314
 20
1231.561
 30
0.0
 40
38.95617
 50
60.16554
 51
299.3074
  0
ARC
  8
0
 10
5447.103
 20
1282.572
 30
0.0
 40
47.63151
 50
336.0326
 51
201.1964
  0
ARC
  8
0
 10
5502.054
 20
1229.912
 30
0.0
 40
35.21793
 50
248.2987
 51
108.9304
  0
LINE
  8
0
 10
5489.032
 20
1197.191
 30
0.0
 11
5750.57
 21
964.6111
 31
0.0
  0
ARC
  8
0
 10
6701.913
 20
806.1308
 30
0.0
 40
964.4431
 50
142.9488
 51
170.5425
  0
ARC
  8
0
 10
5969.002
 20
1437.741
 30
0.0
 40
62.50004
 50
233.9137
 51
53.91369
  0
ARC
  8
0
 10
5969.002
 20
1437.741
 30
0.0
 40
62.50004
 50
53.91369
 51
233.9137
  0
ARC
  8
0
 10
5983.192
 20
1394.602
 30
0.0
 40
51.53259
 50
188.2141
 51
28.19942
  0
ARC
  8
0
 10
5999.754
 20
1470.461
 30
0.0
 40
59.04198
 50
299.2615
 51
154.2873
  0
ARC
  8
0
 10
5927.801
 20
1443.181
 30
0.0
 40
56.11646
 50
70.48463
 51
274.4781
  0
ARC
  8
0
 10
6701.913
 20
806.1308
 30
0.0
 40
964.4431
 50
142.9488
 51
170.5425
  0
ARC
  8
0
 10
7970.864
 20
1396.522
 30
0.0
 40
2261.912
 50
175.433
 51
191.0084
  0
ARC
  8
0
 10
5716.131
 20
1626.632
 30
0.0
 40
50.00003
 50
270
 51
89.99999
  0
ARC
  8
0
 10
5716.131
 20
1626.632
 30
0.0
 40
50.00003
 50
89.99999
 51
270
  0
ARC
  8
0
 10
5745.531
 20
1587.262
 30
0.0
 40
31.25734
 50
199.8776
 51
53.61207
  0
ARC
  8
0
 10
5750.033
 20
1648.882
 30
0.0
 40
39.0709
 50
291.06
 51
135.5036
  0
ARC
  8
0
 10
5686.131
 20
1673.352
 30
0.0
 40
36.15008
 50
4.619206
 51
240.7929
  0
ARC
  8
0
 10
5688.583
 20
1606.491
 30
0.0
 40
40.62809
 50
119.6321
 51
312.7061
  0
ARC
  8
0
 10
7970.864
 20
1396.522
 30
0.0
 40
2261.912
 50
175.433
 51
191.0084
  0
ARC
  8
0
 10
6403.813
 20
762.111
 30
0.0
 40
683.9014
 50
162.7767
 51
185.6642
  0
LINE
  8
0
 10
5723.241
 20
694.611
 30
0.0
 11
4961.243
 21
-67.38902
 31
0.0
  0
CIRCLE
  8
0
 10
1000
 20
7000
 30
0.0
 40
100
  0
CIRCLE
  8
0
 10
2500
 20
8000
 30
0.0
 40
100
  0
CIRCLE
  8
0
 10
4000
 20
7000
 30
0.0
 40
100
  0
CIRCLE
  8
0
 10
100
 20
100
 30
0.0
 40
125
  0
CIRCLE
  8
0
 10
200
 20
200
 30
0.0
 40
200
  0
CIRCLE
  8
0
 10
300
 20
300
 30
0.0
 40
200
  0
CIRCLE
  8
0
 10
350
 20
350
 30
0.0
 40
200
  0
CIRCLE
  8
0
 10
360
 20
360
 30
0.0
 40
200
  0
CIRCLE
  8
0
 10
370
 20
370
 30
0.0
 40
200
  0
ENDSEC
  0
EOF
