  0
SECTION
  2
ENTITIES
  0
LINE
  8
0
 10
17.20002
 20
762.7138
 30
0.0
 11
110.1129
 21
680.592
 31
0.0
  0
ARC
  8
0
 10
-1.425239
 20
573.7
 30
0.0
 40
154.4883
 50
274.5695
 51
43.78166
  0
ARC
  8
0
 10
19.52858
 20
344.1643
 30
0.0
 40
76.03171
 50
96.52925
 51
209.8206
  0
ARC
  8
0
 10
-22.14289
 20
375.9503
 30
0.0
 40
73.71314
 50
117.5602
 51
250.7583
  0
ARC
  8
0
 10
-12.14379
 20
546.3823
 30
0.0
 40
113.9643
 50
176.7306
 51
247.2318
  0
ARC
  8
0
 10
-59.28737
 20
565.4847
 30
0.0
 40
67.81664
 50
190.7107
 51
310.0132
  0
ARC
  8
0
 10
40.93787
 20
559.9865
 30
0.0
 40
73.23146
 50
101.2865
 51
219.3597
  0
ARC
  8
0
 10
59.57747
 20
602.7968
 30
0.0
 40
43.91427
 50
138.663
 51
312.0267
  0
ARC
  8
0
 10
31.60505
 20
638.3889
 30
0.0
 40
89.13229
 50
310.0663
 51
28.26093
  0
ARC
  8
0
 10
2.392839
 20
520.8177
 30
0.0
 40
192.6952
 50
290.2223
 51
56.01215
  0
ARC
  8
0
 10
124.8173
 20
157.8811
 30
0.0
 40
190.4809
 50
107.0396
 51
235.5989
  0
ARC
  8
0
 10
129.3797
 20
106.9316
 30
0.0
 40
154.4883
 50
94.2243
 51
223.4364
  0
ARC
  8
0
 10
109.8092
 20
336.5894
 30
0.0
 40
76.03171
 50
276.1844
 51
29.47507
  0
ARC
  8
0
 10
151.2884
 20
304.5529
 30
0.0
 40
73.71314
 50
297.2153
 51
70.41279
  0
ARC
  8
0
 10
140.2626
 20
134.1842
 30
0.0
 40
113.9643
 50
356.3856
 51
66.88628
  0
ARC
  8
0
 10
187.2903
 20
114.7981
 30
0.0
 40
67.81664
 50
10.36524
 51
129.6681
  0
ARC
  8
0
 10
87.09997
 20
120.9001
 30
0.0
 40
73.23146
 50
280.9415
 51
39.01416
  0
ARC
  8
0
 10
68.20277
 20
78.20278
 30
0.0
 40
43.91427
 50
318.3181
 51
131.6816
  0
ARC
  8
0
 10
95.96023
 20
42.44281
 30
0.0
 40
89.13229
 50
129.7211
 51
207.9157
  0
CIRCLE
  8
0
 10
1000
 20
7000
 30
0.0
 40
100
  0
CIRCLE
  8
0
 10
2000
 20
7000
 30
0.0
 40
100
  0
CIRCLE
  8
0
 10
3000
 20
7000
 30
0.0
 40
100
  0
CIRCLE
  8
0
 10
100
 20
100
 30
0.0
 40
125
  0
CIRCLE
  8
0
 10
200
 20
200
 30
0.0
 40
200
  0
CIRCLE
  8
0
 10
300
 20
300
 30
0.0
 40
200
  0
CIRCLE
  8
0
 10
350
 20
350
 30
0.0
 40
200
  0
CIRCLE
  8
0
 10
360
 20
360
 30
0.0
 40
200
  0
CIRCLE
  8
0
 10
370
 20
370
 30
0.0
 40
200
  0
ENDSEC
  0
EOF
