  0
SECTION
  2
ENTITIES
  0
ARC
  8
0
 10
5048.5
 20
1776.88
 30
0.0
 40
176.2107
 50
303.3936
 51
104.1295
  0
ARC
  8
0
 10
5004.691
 20
1706.62
 30
0.0
 40
160.4058
 50
331.3726
 51
72.14673
  0
ARC
  8
0
 10
5053.651
 20
1920.109
 30
0.0
 40
60.81426
 50
210.3851
 51
270.198
  0
ARC
  8
0
 10
5024.491
 20
1851.369
 30
0.0
 40
44.5555
 50
121.5296
 51
224.5539
  0
ARC
  8
0
 10
4969.13
 20
1735.05
 30
0.0
 40
88.28098
 50
74.48343
 51
172.0076
  0
ARC
  8
0
 10
4879.672
 20
1699.919
 30
0.0
 40
47.44621
 50
27.55453
 51
87.54149
  0
ARC
  8
0
 10
4907.309
 20
1767.07
 30
0.0
 40
47.44621
 50
227.7095
 51
287.6964
  0
ARC
  8
0
 10
4946.112
 20
1679.149
 30
0.0
 40
88.28098
 50
143.2433
 51
240.7675
  0
ARC
  8
0
 10
4903.539
 20
1557.56
 30
0.0
 40
44.5555
 50
90.69705
 51
193.7213
  0
ARC
  8
0
 10
4875.858
 20
1488.209
 30
0.0
 40
60.81426
 50
45.05294
 51
104.8659
  0
ARC
  8
0
 10
4991.391
 20
1674.31
 30
0.0
 40
160.4058
 50
243.1042
 51
343.8784
  0
ARC
  8
0
 10
4952.758
 20
1625.189
 30
0.0
 40
192.7777
 50
285.8723
 51
1.358982
  0
ARC
  8
0
 10
5058.212
 20
1254.34
 30
0.0
 40
192.7777
 50
105.8723
 51
181.359
  0
ARC
  8
0
 10
5019.579
 20
1205.22
 30
0.0
 40
160.4058
 50
63.10419
 51
163.8784
  0
ARC
  8
0
 10
5135.111
 20
1391.32
 30
0.0
 40
60.81426
 50
225.0529
 51
284.8659
  0
ARC
  8
0
 10
5107.431
 20
1321.97
 30
0.0
 40
44.5555
 50
270.6971
 51
13.72127
  0
ARC
  8
0
 10
5064.848
 20
1200.38
 30
0.0
 40
88.28098
 50
323.2433
 51
60.76749
  0
ARC
  8
0
 10
5103.661
 20
1112.46
 30
0.0
 40
47.44621
 50
47.70947
 51
107.6964
  0
ARC
  8
0
 10
5131.298
 20
1179.6
 30
0.0
 40
47.44621
 50
207.5545
 51
267.5415
  0
ARC
  8
0
 10
5041.84
 20
1144.48
 30
0.0
 40
88.28098
 50
254.4835
 51
352.0076
  0
ARC
  8
0
 10
4986.469
 20
1028.15
 30
0.0
 40
44.5555
 50
301.5297
 51
44.5539
  0
ARC
  8
0
 10
4957.309
 20
959.4207
 30
0.0
 40
60.81426
 50
30.38503
 51
90.19801
  0
ARC
  8
0
 10
5006.278
 20
1172.911
 30
0.0
 40
160.4058
 50
151.3726
 51
252.1468
  0
ARC
  8
0
 10
4962.47
 20
1102.64
 30
0.0
 40
176.2107
 50
123.3936
 51
284.1295
  0
CIRCLE
  8
0
 10
1000
 20
7000
 30
0.0
 40
100
  0
CIRCLE
  8
0
 10
2000
 20
7000
 30
0.0
 40
100
  0
CIRCLE
  8
0
 10
100
 20
100
 30
0.0
 40
125
  0
CIRCLE
  8
0
 10
200
 20
200
 30
0.0
 40
200
  0
CIRCLE
  8
0
 10
300
 20
300
 30
0.0
 40
200
  0
CIRCLE
  8
0
 10
350
 20
350
 30
0.0
 40
200
  0
CIRCLE
  8
0
 10
360
 20
360
 30
0.0
 40
200
  0
CIRCLE
  8
0
 10
370
 20
370
 30
0.0
 40
200
  0
ENDSEC
  0
EOF
