  0
SECTION
  2
ENTITIES
  0
ARC
  8
0
 10
5066.95
 20
1214.98
 30
0.0
 40
221.3652
 50
101.192
 51
179.0531
  0
ARC
  8
0
 10
5023.562
 20
1534.35
 30
0.0
 40
102.2167
 50
270.234
 51
337.7449
  0
ARC
  8
0
 10
5039.411
 20
1420.64
 30
0.0
 40
108.7501
 50
316.3972
 51
43.60281
  0
ARC
  8
0
 10
5118.161
 20
1218.639
 30
0.0
 40
127.0001
 50
270
 51
89.99999
  0
ARC
  8
0
 10
5039.411
 20
1016.64
 30
0.0
 40
108.7501
 50
316.3972
 51
43.60281
  0
ARC
  8
0
 10
5023.562
 20
902.9299
 30
0.0
 40
102.2167
 50
22.25513
 51
89.76594
  0
ARC
  8
0
 10
5066.95
 20
1222.3
 30
0.0
 40
221.3652
 50
180.9469
 51
258.8079
  0
ARC
  8
0
 10
5258.361
 20
1218.639
 30
0.0
 40
412.7503
 50
180
 51
247.3802
  0
ARC
  8
0
 10
4940.861
 20
456.6393
 30
0.0
 40
412.7503
 50
360
 51
67.38012
  0
ARC
  8
0
 10
5131.281
 20
452.0593
 30
0.0
 40
222.3754
 50
1.180067
 51
78.71598
  0
ARC
  8
0
 10
5175.212
 20
772.3597
 30
0.0
 40
102.2167
 50
202.2551
 51
269.766
  0
ARC
  8
0
 10
5159.362
 20
658.639
 30
0.0
 40
108.7501
 50
136.3972
 51
223.6028
  0
ARC
  8
0
 10
5080.612
 20
456.6393
 30
0.0
 40
127.0001
 50
89.99999
 51
270
  0
ARC
  8
0
 10
5159.362
 20
254.6397
 30
0.0
 40
108.7501
 50
136.3972
 51
223.6028
  0
ARC
  8
0
 10
5175.212
 20
140.9287
 30
0.0
 40
102.2167
 50
90.23405
 51
157.7449
  0
ARC
  8
0
 10
5131.281
 20
461.2194
 30
0.0
 40
222.3754
 50
281.284
 51
358.82
  0
ARC
  8
0
 10
4940.861
 20
456.6393
 30
0.0
 40
412.7503
 50
292.6198
 51
0
  0
ARC
  8
0
 10
5258.361
 20
-305.3607
 30
0.0
 40
412.7503
 50
112.6199
 51
180
  0
CIRCLE
  8
0
 10
1000
 20
7000
 30
0.0
 40
100
  0
CIRCLE
  8
0
 10
2000
 20
8000
 30
0.0
 40
100
  0
CIRCLE
  8
0
 10
3000
 20
7000
 30
0.0
 40
100
  0
CIRCLE
  8
0
 10
100
 20
100
 30
0.0
 40
125
  0
CIRCLE
  8
0
 10
200
 20
200
 30
0.0
 40
200
  0
CIRCLE
  8
0
 10
300
 20
300
 30
0.0
 40
200
  0
CIRCLE
  8
0
 10
350
 20
350
 30
0.0
 40
200
  0
CIRCLE
  8
0
 10
360
 20
360
 30
0.0
 40
200
  0
CIRCLE
  8
0
 10
370
 20
370
 30
0.0
 40
200
  0
ENDSEC
  0
EOF
