  0
SECTION
  2
ENTITIES
  0
ARC
  8
0
 10
5414.127
 20
1417.819
 30
0.0
 40
110.806
 50
235.0353
 51
304.9648
  0
ARC
  8
0
 10
5350.631
 20
1342.01
 30
0.0
 40
14.99997
 50
89.99999
 51
270
  0
ARC
  8
0
 10
5350.631
 20
1342.01
 30
0.0
 40
14.99997
 50
270
 51
89.99999
  0
ARC
  8
0
 10
5287.13
 20
1417.819
 30
0.0
 40
110.806
 50
235.0353
 51
304.9648
  0
ARC
  8
0
 10
5223.629
 20
1342.01
 30
0.0
 40
14.99997
 50
89.99999
 51
270
  0
ARC
  8
0
 10
5223.629
 20
1342.01
 30
0.0
 40
14.99997
 50
270
 51
89.99999
  0
ARC
  8
0
 10
5160.129
 20
1417.819
 30
0.0
 40
110.806
 50
235.0353
 51
304.9648
  0
ARC
  8
0
 10
5096.628
 20
1342.01
 30
0.0
 40
14.99997
 50
89.99999
 51
270
  0
ARC
  8
0
 10
5096.628
 20
1342.01
 30
0.0
 40
14.99997
 50
270
 51
89.99999
  0
ARC
  8
0
 10
5033.132
 20
1417.819
 30
0.0
 40
110.806
 50
235.0353
 51
304.9648
  0
ARC
  8
0
 10
5060.441
 20
1263.511
 30
0.0
 40
110.806
 50
145.0353
 51
214.9648
  0
ARC
  8
0
 10
4984.631
 20
1200.01
 30
0.0
 40
14.99997
 50
0
 51
180
  0
ARC
  8
0
 10
4984.631
 20
1200.01
 30
0.0
 40
14.99997
 50
180
 51
0
  0
ARC
  8
0
 10
5060.441
 20
1136.51
 30
0.0
 40
110.806
 50
145.0353
 51
214.9648
  0
ARC
  8
0
 10
4984.631
 20
1073.011
 30
0.0
 40
14.99997
 50
0
 51
180
  0
ARC
  8
0
 10
4984.631
 20
1073.011
 30
0.0
 40
14.99997
 50
180
 51
0
  0
ARC
  8
0
 10
5060.441
 20
1009.511
 30
0.0
 40
110.806
 50
145.0353
 51
214.9648
  0
ARC
  8
0
 10
4984.631
 20
946.0114
 30
0.0
 40
14.99997
 50
0
 51
180
  0
ARC
  8
0
 10
4984.631
 20
946.0114
 30
0.0
 40
14.99997
 50
180
 51
0
  0
ARC
  8
0
 10
5060.441
 20
882.5106
 30
0.0
 40
110.806
 50
145.0353
 51
214.9648
  0
ARC
  8
0
 10
5033.132
 20
728.2116
 30
0.0
 40
110.806
 50
55.03525
 51
124.9648
  0
ARC
  8
0
 10
5096.628
 20
804.011
 30
0.0
 40
14.99997
 50
270
 51
89.99999
  0
ARC
  8
0
 10
5096.628
 20
804.011
 30
0.0
 40
14.99997
 50
89.99999
 51
270
  0
ARC
  8
0
 10
5160.129
 20
728.2116
 30
0.0
 40
110.806
 50
55.03525
 51
124.9648
  0
ARC
  8
0
 10
5223.629
 20
804.011
 30
0.0
 40
14.99997
 50
270
 51
89.99999
  0
ARC
  8
0
 10
5223.629
 20
804.011
 30
0.0
 40
14.99997
 50
89.99999
 51
270
  0
ARC
  8
0
 10
5287.13
 20
728.2116
 30
0.0
 40
110.806
 50
55.03525
 51
124.9648
  0
ARC
  8
0
 10
5350.631
 20
804.011
 30
0.0
 40
14.99997
 50
270
 51
89.99999
  0
ARC
  8
0
 10
5350.631
 20
804.011
 30
0.0
 40
14.99997
 50
89.99999
 51
270
  0
ARC
  8
0
 10
5414.127
 20
728.2116
 30
0.0
 40
110.806
 50
55.03525
 51
124.9648
  0
ARC
  8
0
 10
5568.438
 20
755.5114
 30
0.0
 40
110.806
 50
145.0353
 51
214.9648
  0
ARC
  8
0
 10
5492.628
 20
692.0117
 30
0.0
 40
14.99997
 50
180
 51
0
  0
ARC
  8
0
 10
5492.628
 20
692.0117
 30
0.0
 40
14.99997
 50
0
 51
180
  0
ARC
  8
0
 10
5568.438
 20
628.5121
 30
0.0
 40
110.806
 50
145.0353
 51
214.9648
  0
ARC
  8
0
 10
5492.628
 20
565.0112
 30
0.0
 40
14.99997
 50
180
 51
0
  0
ARC
  8
0
 10
5492.628
 20
565.0112
 30
0.0
 40
14.99997
 50
0
 51
180
  0
ARC
  8
0
 10
5568.438
 20
501.5116
 30
0.0
 40
110.806
 50
145.0353
 51
214.9648
  0
ARC
  8
0
 10
5492.628
 20
438.012
 30
0.0
 40
14.99997
 50
180
 51
0
  0
ARC
  8
0
 10
5492.628
 20
438.012
 30
0.0
 40
14.99997
 50
0
 51
180
  0
ARC
  8
0
 10
5568.438
 20
374.5124
 30
0.0
 40
110.806
 50
145.0353
 51
214.9648
  0
CIRCLE
  8
0
 10
1000
 20
7000
 30
0.0
 40
100
  0
CIRCLE
  8
0
 10
2000
 20
7000
 30
0.0
 40
100
  0
CIRCLE
  8
0
 10
3000
 20
7000
 30
0.0
 40
100
  0
CIRCLE
  8
0
 10
100
 20
100
 30
0.0
 40
125
  0
CIRCLE
  8
0
 10
200
 20
200
 30
0.0
 40
200
  0
CIRCLE
  8
0
 10
300
 20
300
 30
0.0
 40
200
  0
CIRCLE
  8
0
 10
350
 20
350
 30
0.0
 40
200
  0
CIRCLE
  8
0
 10
360
 20
360
 30
0.0
 40
200
  0
CIRCLE
  8
0
 10
370
 20
370
 30
0.0
 40
200
  0
ENDSEC
  0
EOF
