  0
SECTION
  2
ENTITIES
  0
LINE
  8
0
 10
5265.222
 20
1603.63
 30
0.0
 11
5011.218
 21
1349.63
 31
0.0
  0
ARC
  8
0
 10
4944.748
 20
1407.75
 30
0.0
 40
88.29231
 50
266.4127
 51
318.8326
  0
ARC
  8
0
 10
4941.291
 20
1349.63
 30
0.0
 40
30.07066
 50
93.92957
 51
266.0705
  0
ARC
  8
0
 10
4944.748
 20
1291.51
 30
0.0
 40
88.29231
 50
41.16734
 51
93.58728
  0
ARC
  8
0
 10
5077.678
 20
1407.75
 30
0.0
 40
88.29231
 50
221.1674
 51
273.5873
  0
ARC
  8
0
 10
5081.149
 20
1349.63
 30
0.0
 40
30.07066
 50
273.9296
 51
86.07047
  0
ARC
  8
0
 10
5077.678
 20
1291.51
 30
0.0
 40
88.29231
 50
86.4127
 51
138.8326
  0
ARC
  8
0
 10
5069.338
 20
1283.16
 30
0.0
 40
88.29231
 50
131.1673
 51
183.5873
  0
ARC
  8
0
 10
5011.218
 20
1279.699
 30
0.0
 40
30.07066
 50
183.9296
 51
356.0705
  0
ARC
  8
0
 10
4953.098
 20
1283.16
 30
0.0
 40
88.29231
 50
356.4127
 51
48.83266
  0
ARC
  8
0
 10
5069.338
 20
1416.09
 30
0.0
 40
88.29231
 50
176.4127
 51
228.8326
  0
ARC
  8
0
 10
5011.218
 20
1419.56
 30
0.0
 40
30.07066
 50
3.929539
 51
176.0705
  0
ARC
  8
0
 10
4953.098
 20
1416.09
 30
0.0
 40
88.29231
 50
311.1674
 51
3.587296
  0
LINE
  8
0
 10
5011.218
 20
1349.63
 30
0.0
 11
5265.222
 21
1095.63
 31
0.0
  0
CIRCLE
  8
0
 10
1000
 20
7000
 30
0.0
 40
100
  0
CIRCLE
  8
0
 10
1500
 20
8000
 30
0.0
 40
100
  0
CIRCLE
  8
0
 10
2000
 20
7000
 30
0.0
 40
100
  0
CIRCLE
  8
0
 10
100
 20
100
 30
0.0
 40
125
  0
CIRCLE
  8
0
 10
200
 20
200
 30
0.0
 40
200
  0
CIRCLE
  8
0
 10
300
 20
300
 30
0.0
 40
200
  0
CIRCLE
  8
0
 10
350
 20
350
 30
0.0
 40
200
  0
CIRCLE
  8
0
 10
360
 20
360
 30
0.0
 40
200
  0
CIRCLE
  8
0
 10
370
 20
370
 30
0.0
 40
200
  0
ENDSEC
  0
EOF
