  0
SECTION
  2
ENTITIES
  0
ARC
  8
0
 10
358.8774
 20
531.2263
 30
0.0
 40
85.23734
 50
42.7948
 51
141.5758
  0
ARC
  8
0
 10
354.6463
 20
642.1079
 30
0.0
 40
85.23734
 50
222.7949
 51
321.5756
  0
ARC
  8
0
 10
229.5534
 20
526.2916
 30
0.0
 40
85.23734
 50
42.79482
 51
141.5757
  0
ARC
  8
0
 10
225.3224
 20
637.1731
 30
0.0
 40
85.23734
 50
222.7949
 51
321.5756
  0
ARC
  8
0
 10
239.1263
 20
650.977
 30
0.0
 40
85.23734
 50
308.4244
 51
47.20526
  0
ARC
  8
0
 10
350.0081
 20
646.746
 30
0.0
 40
85.23734
 50
128.4244
 51
227.2053
  0
ARC
  8
0
 10
234.1916
 20
521.6533
 30
0.0
 40
85.23734
 50
308.4244
 51
47.20526
  0
ARC
  8
0
 10
345.0733
 20
517.4224
 30
0.0
 40
85.23734
 50
128.4244
 51
227.2053
  0
LINE
  8
0
 10
292.0999
 20
584.1997
 30
0.0
 11
673.1
 21
203.1999
 31
0.0
  0
ARC
  8
0
 10
620.1264
 20
269.9773
 30
0.0
 40
85.23734
 50
308.4244
 51
47.20526
  0
ARC
  8
0
 10
731.0081
 20
265.7463
 30
0.0
 40
85.23734
 50
128.4244
 51
227.2053
  0
ARC
  8
0
 10
615.1917
 20
140.6535
 30
0.0
 40
85.23734
 50
308.4244
 51
47.20526
  0
ARC
  8
0
 10
726.0734
 20
136.4226
 30
0.0
 40
85.23734
 50
128.4244
 51
227.2053
  0
LINE
  8
0
 10
673.1
 20
203.2
 30
0.0
 11
1054.1
 21
-177.7999
 31
0.0
  0
LINE
  8
0
 10
1054.1
 20
-177.8
 30
0.0
 11
673.1001
 21
-558.8
 31
0.0
  0
ARC
  8
0
 10
606.3226
 20
-505.8267
 30
0.0
 40
85.23734
 50
222.7949
 51
321.5756
  0
ARC
  8
0
 10
610.5536
 20
-616.7082
 30
0.0
 40
85.23734
 50
42.79482
 51
141.5757
  0
ARC
  8
0
 10
735.6464
 20
-500.8918
 30
0.0
 40
85.23734
 50
222.7949
 51
321.5756
  0
ARC
  8
0
 10
739.8775
 20
-611.7735
 30
0.0
 40
85.23734
 50
42.7948
 51
141.5758
  0
LINE
  8
0
 10
673.1001
 20
-558.8002
 30
0.0
 11
292.1
 21
-939.8003
 31
0.0
  0
CIRCLE
  8
0
 10
1000
 20
7000
 30
0.0
 40
100
  0
CIRCLE
  8
0
 10
1000
 20
8000
 30
0.0
 40
100
  0
CIRCLE
  8
0
 10
2500
 20
7000
 30
0.0
 40
100
  0
CIRCLE
  8
0
 10
2500
 20
8000
 30
0.0
 40
100
  0
CIRCLE
  8
0
 10
100
 20
100
 30
0.0
 40
125
  0
CIRCLE
  8
0
 10
200
 20
200
 30
0.0
 40
200
  0
CIRCLE
  8
0
 10
300
 20
300
 30
0.0
 40
200
  0
CIRCLE
  8
0
 10
350
 20
350
 30
0.0
 40
200
  0
CIRCLE
  8
0
 10
360
 20
360
 30
0.0
 40
200
  0
CIRCLE
  8
0
 10
370
 20
370
 30
0.0
 40
200
  0
ENDSEC
  0
EOF
