  0
SECTION
  2
ENTITIES
  0
ARC
  8
0
 10
5529.418
 20
1980.502
 30
0.0
 40
450.4348
 50
155.3056
 51
192.0256
  0
ARC
  8
0
 10
4929.855
 20
1815.605
 30
0.0
 40
174.1688
 50
332.7891
 51
24.07666
  0
ARC
  8
0
 10
5215.027
 20
1633.706
 30
0.0
 40
165.6152
 50
141.8725
 51
229.4104
  0
ARC
  8
0
 10
5040.028
 20
1725.456
 30
0.0
 40
227.6681
 50
287.1789
 51
45.07764
  0
ARC
  8
0
 10
5515.018
 20
2011.676
 30
0.0
 40
338.1794
 50
152.3371
 51
201.6967
  0
ARC
  8
0
 10
5358.634
 20
1967.206
 30
0.0
 40
247.1518
 50
125.3906
 51
215.35
  0
ARC
  8
0
 10
5032.528
 20
1682.881
 30
0.0
 40
188.3561
 50
1.295475
 51
48.61791
  0
ARC
  8
0
 10
5205.693
 20
1681.44
 30
0.0
 40
16.18246
 50
204.5853
 51
20.61997
  0
ARC
  8
0
 10
5030.418
 20
1678.589
 30
0.0
 40
160.5965
 50
358.6151
 51
38.0062
  0
ARC
  8
0
 10
5145.307
 20
1765.212
 30
0.0
 40
16.91333
 50
46.45324
 51
191.9004
  0
ARC
  8
0
 10
5270.278
 20
1756.007
 30
0.0
 40
141.6274
 50
177.6841
 51
219.6594
  0
ARC
  8
0
 10
5104.978
 20
1610.831
 30
0.0
 40
78.53272
 50
341.9189
 51
44.23368
  0
ARC
  8
0
 10
5167.67
 20
1592.389
 30
0.0
 40
13.35173
 50
211.3589
 51
333.6321
  0
ARC
  8
0
 10
5039.374
 20
1595.945
 30
0.0
 40
117.3588
 50
354.8632
 51
33.64202
  0
ARC
  8
0
 10
5131.517
 20
1659.059
 30
0.0
 40
5.883902
 50
18.95428
 51
187.0137
  0
ARC
  8
0
 10
5217.447
 20
1639.055
 30
0.0
 40
93.77599
 50
168.1331
 51
219.8131
  0
ARC
  8
0
 10
5056.327
 20
1591.2
 30
0.0
 40
89.91566
 50
278.6262
 51
352.2067
  0
ARC
  8
0
 10
5057.817
 20
1590.436
 30
0.0
 40
88.94927
 50
115.8726
 51
277.7502
  0
ARC
  8
0
 10
5010.308
 20
1682.809
 30
0.0
 40
15.10111
 50
305.1911
 51
163.9176
  0
ARC
  8
0
 10
4933.038
 20
1694.655
 30
0.0
 40
63.21695
 50
238.561
 51
353.043
  0
ARC
  8
0
 10
4926.25
 20
1658.747
 30
0.0
 40
31.79022
 50
99.67365
 51
214.5443
  0
ARC
  8
0
 10
4904.547
 20
1857.618
 30
0.0
 40
168.3283
 50
275.5799
 51
346.7013
  0
ARC
  8
0
 10
5051.188
 20
1828.629
 30
0.0
 40
19.7366
 50
330.4529
 51
165.5583
  0
ARC
  8
0
 10
4897.302
 20
1859.813
 30
0.0
 40
137.3092
 50
298.761
 51
348.9707
  0
ARC
  8
0
 10
4950.074
 20
1757.84
 30
0.0
 40
22.69473
 50
115.4875
 51
305.8726
  0
ARC
  8
0
 10
4820.559
 20
1983.392
 30
0.0
 40
237.4745
 50
300.2815
 51
51.28362
  0
ARC
  8
0
 10
4548.233
 20
2046.355
 30
0.0
 40
438.2755
 50
329.5442
 51
16.2072
  0
ARC
  8
0
 10
5054.955
 20
1689.025
 30
0.0
 40
186.8031
 50
133.641
 51
257.4665
  0
ARC
  8
0
 10
4904.616
 20
1664.247
 30
0.0
 40
192.059
 50
304.869
 51
9.186354
  0
ARC
  8
0
 10
5073.812
 20
1673.957
 30
0.0
 40
29.24171
 50
45.7778
 51
134.3782
  0
ARC
  8
0
 10
5254.039
 20
1615.022
 30
0.0
 40
215.9705
 50
158.3054
 51
211.4602
  0
ARC
  8
0
 10
7319.863
 20
1290.9
 30
0.0
 40
2259.958
 50
174.6325
 51
184.5581
  0
ARC
  8
0
 10
4907.729
 20
1068.651
 30
0.0
 40
164.9384
 50
333.8611
 51
14.9847
  0
LINE
  8
0
 10
5055.791
 20
995.988
 30
0.0
 11
5047.081
 21
1000.32
 31
0.0
  0
ARC
  8
0
 10
4781.39
 20
1083.211
 30
0.0
 40
278.0626
 50
342.6729
 51
14.19184
  0
ARC
  8
0
 10
4993.896
 20
1169.497
 30
0.0
 40
59.81203
 50
231.9569
 51
342.3558
  0
ARC
  8
0
 10
4889.738
 20
1066.617
 30
0.0
 40
87.40614
 50
39.65109
 51
104.1604
  0
ARC
  8
0
 10
4959.63
 20
1050.088
 30
0.0
 40
136.3381
 50
47.97666
 51
132.0233
  0
ARC
  8
0
 10
6236.576
 20
1322.272
 30
0.0
 40
1197.86
 50
172.248
 51
188.2021
  0
ARC
  8
0
 10
5070.851
 20
1480.937
 30
0.0
 40
21.38652
 50
92.79523
 51
172.1851
  0
ARC
  8
0
 10
5068.765
 20
1480.937
 30
0.0
 40
21.38652
 50
7.814956
 51
87.20476
  0
ARC
  8
0
 10
6143.121
 20
1307.38
 30
0.0
 40
1067.849
 50
170.4881
 51
183.2385
  0
ARC
  8
0
 10
5210.537
 20
1092.8
 30
0.0
 40
204.0395
 50
79.25353
 51
130.8867
  0
ARC
  8
0
 10
5292.587
 20
1417.652
 30
0.0
 40
131.9439
 50
250.5198
 51
289.5495
  0
ARC
  8
0
 10
5209.568
 20
1347.426
 30
0.0
 40
138.2018
 50
238.1233
 51
336.9478
  0
ARC
  8
0
 10
5093.091
 20
1190.529
 30
0.0
 40
58.78329
 50
42.28102
 51
105.9104
  0
LINE
  8
0
 10
5076.979
 20
1247.058
 30
0.0
 11
5076.993
 21
1096.766
 31
0.0
  0
ARC
  8
0
 10
5164.518
 20
1078.038
 30
0.0
 40
89.5051
 50
167.927
 51
240.3089
  0
CIRCLE
  8
0
 10
1000
 20
7000
 30
0.0
 40
100
  0
CIRCLE
  8
0
 10
2000
 20
7000
 30
0.0
 40
100
  0
CIRCLE
  8
0
 10
3000
 20
7000
 30
0.0
 40
100
  0
CIRCLE
  8
0
 10
100
 20
100
 30
0.0
 40
125
  0
CIRCLE
  8
0
 10
200
 20
200
 30
0.0
 40
200
  0
CIRCLE
  8
0
 10
300
 20
300
 30
0.0
 40
200
  0
CIRCLE
  8
0
 10
350
 20
350
 30
0.0
 40
200
  0
CIRCLE
  8
0
 10
360
 20
360
 30
0.0
 40
200
  0
CIRCLE
  8
0
 10
370
 20
370
 30
0.0
 40
200
  0
ENDSEC
  0
EOF
