  0
SECTION
  2
ENTITIES
  0
ARC
  8
0
 10
5050.431
 20
2149.408
 30
0.0
 40
154.9997
 50
89.99999
 51
258.8401
  0
ARC
  8
0
 10
4924.289
 20
1663.24
 30
0.0
 40
347.6553
 50
73.94593
 51
127.9622
  0
ARC
  8
0
 10
4535.5
 20
2056.019
 30
0.0
 40
211.3922
 50
325.8441
 51
165.9515
  0
ARC
  8
0
 10
4514.47
 20
2009.008
 30
0.0
 40
208.6579
 50
339.9111
 51
151.8844
  0
ARC
  8
0
 10
4531.53
 20
1929.179
 30
0.0
 40
179.0884
 50
2.611409
 51
223.3857
  0
ARC
  8
0
 10
4373.083
 20
1773.279
 30
0.0
 40
43.38154
 50
190.5413
 51
49.28836
  0
ARC
  8
0
 10
4407.971
 20
1751.659
 30
0.0
 40
78.74266
 50
169.9987
 51
284.2186
  0
ARC
  8
0
 10
4476.979
 20
1569.459
 30
0.0
 40
116.942
 50
115.1331
 51
170.6259
  0
ARC
  8
0
 10
4342.561
 20
1703.889
 30
0.0
 40
116.942
 50
279.3741
 51
334.8669
  0
ARC
  8
0
 10
4524.763
 20
1634.879
 30
0.0
 40
78.74266
 50
165.7814
 51
280.0013
  0
ARC
  8
0
 10
4546.369
 20
1599.989
 30
0.0
 40
43.38154
 50
40.71164
 51
259.4587
  0
ARC
  8
0
 10
4702.272
 20
1758.429
 30
0.0
 40
179.0884
 50
226.6143
 51
87.38857
  0
ARC
  8
0
 10
4924.289
 20
1663.24
 30
0.0
 40
347.6553
 50
73.94593
 51
127.9622
  0
ARC
  8
0
 10
3964.861
 20
1843.018
 30
0.0
 40
1066.784
 50
345.027
 51
8.317102
  0
ARC
  8
0
 10
5066.7
 20
1651.199
 30
0.0
 40
110.002
 50
229.6173
 51
261.4948
  0
ARC
  8
0
 10
5050.431
 20
1387.41
 30
0.0
 40
154.9997
 50
281.1599
 51
89.99999
  0
ARC
  8
0
 10
5176.568
 20
901.2404
 30
0.0
 40
347.6553
 50
52.03778
 51
106.0541
  0
ARC
  8
0
 10
5565.361
 20
1294.02
 30
0.0
 40
211.3922
 50
14.04856
 51
214.1559
  0
ARC
  8
0
 10
5586.387
 20
1247.01
 30
0.0
 40
208.6579
 50
28.11563
 51
200.0888
  0
ARC
  8
0
 10
5569.331
 20
1167.18
 30
0.0
 40
179.0884
 50
316.6143
 51
177.3886
  0
ARC
  8
0
 10
5727.778
 20
1011.28
 30
0.0
 40
43.38154
 50
130.7117
 51
349.4587
  0
ARC
  8
0
 10
5692.891
 20
989.6703
 30
0.0
 40
78.74266
 50
255.7815
 51
10.00138
  0
ARC
  8
0
 10
5623.867
 20
807.4612
 30
0.0
 40
116.942
 50
9.374135
 51
64.8669
  0
ARC
  8
0
 10
5758.301
 20
941.8909
 30
0.0
 40
116.942
 50
205.1331
 51
260.6259
  0
ARC
  8
0
 10
5576.099
 20
872.881
 30
0.0
 40
78.74266
 50
259.9986
 51
14.21853
  0
ARC
  8
0
 10
5554.487
 20
837.991
 30
0.0
 40
43.38154
 50
280.5413
 51
139.2884
  0
ARC
  8
0
 10
5398.589
 20
996.4306
 30
0.0
 40
179.0884
 50
92.61142
 51
313.3857
  0
ARC
  8
0
 10
5176.568
 20
901.2404
 30
0.0
 40
347.6553
 50
52.03778
 51
106.0541
  0
ARC
  8
0
 10
6136
 20
1081.02
 30
0.0
 40
1066.784
 50
171.6829
 51
194.973
  0
ARC
  8
0
 10
5034.161
 20
889.2006
 30
0.0
 40
110.002
 50
278.5052
 51
310.3827
  0
CIRCLE
  8
0
 10
1000
 20
7000
 30
0.0
 40
100
  0
CIRCLE
  8
0
 10
1000
 20
8000
 30
0.0
 40
100
  0
CIRCLE
  8
0
 10
4000
 20
7000
 30
0.0
 40
100
  0
CIRCLE
  8
0
 10
4000
 20
8000
 30
0.0
 40
100
  0
CIRCLE
  8
0
 10
100
 20
100
 30
0.0
 40
125
  0
CIRCLE
  8
0
 10
200
 20
200
 30
0.0
 40
200
  0
CIRCLE
  8
0
 10
300
 20
300
 30
0.0
 40
200
  0
CIRCLE
  8
0
 10
350
 20
350
 30
0.0
 40
200
  0
CIRCLE
  8
0
 10
360
 20
360
 30
0.0
 40
200
  0
CIRCLE
  8
0
 10
370
 20
370
 30
0.0
 40
200
  0
ENDSEC
  0
EOF
