  0
SECTION
  2
ENTITIES
  0
ARC
  8
0
 10
4941.781
 20
1454.32
 30
0.0
 40
160
 50
327.3949
 51
89.99999
  0
ARC
  8
0
 10
5162.782
 20
1233.32
 30
0.0
 40
160
 50
237.3949
 51
122.605
  0
ARC
  8
0
 10
4941.781
 20
1012.321
 30
0.0
 40
160
 50
270
 51
32.60506
  0
ARC
  8
0
 10
4941.781
 20
692.3207
 30
0.0
 40
160
 50
89.99999
 51
212.605
  0
ARC
  8
0
 10
4720.78
 20
471.3197
 30
0.0
 40
160
 50
57.39494
 51
302.6051
  0
ARC
  8
0
 10
4941.781
 20
250.32
 30
0.0
 40
160
 50
147.3949
 51
270
  0
CIRCLE
  8
0
 10
1000
 20
7000
 30
0.0
 40
100
  0
CIRCLE
  8
0
 10
1000
 20
8000
 30
0.0
 40
100
  0
CIRCLE
  8
0
 10
2500
 20
7000
 30
0.0
 40
100
  0
CIRCLE
  8
0
 10
2500
 20
8000
 30
0.0
 40
100
  0
CIRCLE
  8
0
 10
100
 20
100
 30
0.0
 40
125
  0
CIRCLE
  8
0
 10
200
 20
200
 30
0.0
 40
200
  0
CIRCLE
  8
0
 10
300
 20
300
 30
0.0
 40
200
  0
CIRCLE
  8
0
 10
350
 20
350
 30
0.0
 40
200
  0
CIRCLE
  8
0
 10
360
 20
360
 30
0.0
 40
200
  0
CIRCLE
  8
0
 10
370
 20
370
 30
0.0
 40
200
  0
ENDSEC
  0
EOF
