  0
SECTION
  2
ENTITIES
  0
ARC
  8
0
 10
5471.007
 20
1998.729
 30
0.0
 40
380.0678
 50
89.94178
 51
180.1405
  0
ARC
  8
0
 10
5408.668
 20
1997.569
 30
0.0
 40
317.734
 50
90.14088
 51
179.9579
  0
ARC
  8
0
 10
5415.211
 20
2371.55
 30
0.0
 40
56.6516
 50
263.1386
 51
7.356978
  0
ARC
  8
0
 10
5415.211
 20
2371.55
 30
0.0
 40
56.6516
 50
263.1386
 51
7.356978
  0
ARC
  8
0
 10
5351.71
 20
2308.049
 30
0.0
 40
56.6516
 50
263.1386
 51
7.356978
  0
ARC
  8
0
 10
5342.741
 20
2000
 30
0.0
 40
251.8079
 50
89.6235
 51
180.5
  0
ARC
  8
0
 10
5277.96
 20
2001.269
 30
0.0
 40
187.053
 50
89.10182
 51
181.0629
  0
ARC
  8
0
 10
5288.209
 20
2244.549
 30
0.0
 40
56.6516
 50
263.1386
 51
7.356978
  0
ARC
  8
0
 10
5288.209
 20
2244.549
 30
0.0
 40
56.6516
 50
263.1386
 51
7.356978
  0
ARC
  8
0
 10
5224.162
 20
2181.049
 30
0.0
 40
56.6516
 50
263.1386
 51
7.356978
  0
ARC
  8
0
 10
5211.51
 20
2004.21
 30
0.0
 40
120.7371
 50
87.20562
 51
183.0417
  0
ARC
  8
0
 10
5147.131
 20
2005.059
 30
0.0
 40
56.6516
 50
83.13865
 51
187.357
  0
ARC
  8
0
 10
5161.208
 20
2117.55
 30
0.0
 40
56.6516
 50
263.1386
 51
7.356978
  0
ARC
  8
0
 10
5161.208
 20
2117.55
 30
0.0
 40
56.6516
 50
263.1386
 51
7.356978
  0
ARC
  8
0
 10
5097.712
 20
2054.05
 30
0.0
 40
56.6516
 50
263.1386
 51
7.356978
  0
ARC
  8
0
 10
5090.549
 20
1617.729
 30
0.0
 40
380.0678
 50
89.94178
 51
180.1405
  0
ARC
  8
0
 10
5028.22
 20
1616.57
 30
0.0
 40
317.734
 50
90.14088
 51
179.9579
  0
ARC
  8
0
 10
5034.758
 20
1990.549
 30
0.0
 40
56.6516
 50
263.1386
 51
7.356978
  0
ARC
  8
0
 10
5034.758
 20
1990.549
 30
0.0
 40
56.6516
 50
263.1386
 51
7.356978
  0
ARC
  8
0
 10
4971.262
 20
1927.049
 30
0.0
 40
56.6516
 50
263.1386
 51
7.356978
  0
ARC
  8
0
 10
4962.292
 20
1619
 30
0.0
 40
251.8079
 50
89.6235
 51
180.5
  0
ARC
  8
0
 10
4897.512
 20
1620.27
 30
0.0
 40
187.053
 50
89.10182
 51
181.0629
  0
ARC
  8
0
 10
4907.761
 20
1863.55
 30
0.0
 40
56.6516
 50
263.1386
 51
7.356978
  0
ARC
  8
0
 10
4907.761
 20
1863.55
 30
0.0
 40
56.6516
 50
263.1386
 51
7.356978
  0
ARC
  8
0
 10
4843.708
 20
1800.05
 30
0.0
 40
56.6516
 50
263.1386
 51
7.356978
  0
ARC
  8
0
 10
4831.062
 20
1623.209
 30
0.0
 40
120.7371
 50
87.20562
 51
183.0417
  0
ARC
  8
0
 10
4766.672
 20
1624.05
 30
0.0
 40
56.6516
 50
83.13865
 51
187.357
  0
ARC
  8
0
 10
4780.749
 20
1736.55
 30
0.0
 40
56.6516
 50
263.1386
 51
7.356978
  0
ARC
  8
0
 10
4780.749
 20
1736.55
 30
0.0
 40
56.6516
 50
263.1386
 51
7.356978
  0
ARC
  8
0
 10
4717.258
 20
1673.049
 30
0.0
 40
56.6516
 50
263.1386
 51
7.356978
  0
ARC
  8
0
 10
4710.881
 20
1236.73
 30
0.0
 40
380.0678
 50
359.8595
 51
90.0582
  0
ARC
  8
0
 10
4773.21
 20
1235.571
 30
0.0
 40
317.734
 50
.042072
 51
89.85915
  0
ARC
  8
0
 10
4766.672
 20
1609.55
 30
0.0
 40
56.6516
 50
172.643
 51
276.8614
  0
ARC
  8
0
 10
4766.672
 20
1609.55
 30
0.0
 40
56.6516
 50
172.643
 51
276.8614
  0
ARC
  8
0
 10
4830.168
 20
1546.05
 30
0.0
 40
56.6516
 50
172.643
 51
276.8614
  0
ARC
  8
0
 10
4839.138
 20
1238
 30
0.0
 40
251.8079
 50
359.5
 51
90.37648
  0
ARC
  8
0
 10
4903.918
 20
1239.27
 30
0.0
 40
187.053
 50
358.9371
 51
90.89816
  0
ARC
  8
0
 10
4893.669
 20
1482.55
 30
0.0
 40
56.6516
 50
172.643
 51
276.8614
  0
ARC
  8
0
 10
4893.669
 20
1482.55
 30
0.0
 40
56.6516
 50
172.643
 51
276.8614
  0
ARC
  8
0
 10
4957.722
 20
1419.051
 30
0.0
 40
56.6516
 50
172.643
 51
276.8614
  0
ARC
  8
0
 10
4970.368
 20
1242.21
 30
0.0
 40
120.7371
 50
356.9583
 51
92.79436
  0
ARC
  8
0
 10
5034.758
 20
1243.05
 30
0.0
 40
56.6516
 50
352.6431
 51
96.8614
  0
ARC
  8
0
 10
5020.671
 20
1355.55
 30
0.0
 40
56.6516
 50
172.643
 51
276.8614
  0
ARC
  8
0
 10
5020.671
 20
1355.55
 30
0.0
 40
56.6516
 50
172.643
 51
276.8614
  0
ARC
  8
0
 10
5084.172
 20
1292.05
 30
0.0
 40
56.6516
 50
172.643
 51
276.8614
  0
ARC
  8
0
 10
5091.33
 20
855.7308
 30
0.0
 40
380.0678
 50
359.8595
 51
90.0582
  0
ARC
  8
0
 10
5153.659
 20
854.5711
 30
0.0
 40
317.734
 50
.042072
 51
89.85915
  0
ARC
  8
0
 10
5147.131
 20
1228.55
 30
0.0
 40
56.6516
 50
172.643
 51
276.8614
  0
ARC
  8
0
 10
5147.131
 20
1228.55
 30
0.0
 40
56.6516
 50
172.643
 51
276.8614
  0
ARC
  8
0
 10
5210.631
 20
1165.051
 30
0.0
 40
56.6516
 50
172.643
 51
276.8614
  0
ARC
  8
0
 10
5219.601
 20
857.0003
 30
0.0
 40
251.8079
 50
359.5
 51
90.37648
  0
ARC
  8
0
 10
5284.372
 20
858.2711
 30
0.0
 40
187.053
 50
358.9371
 51
90.89816
  0
ARC
  8
0
 10
5274.127
 20
1101.551
 30
0.0
 40
56.6516
 50
172.643
 51
276.8614
  0
ARC
  8
0
 10
5274.127
 20
1101.551
 30
0.0
 40
56.6516
 50
172.643
 51
276.8614
  0
ARC
  8
0
 10
5338.17
 20
1038.05
 30
0.0
 40
56.6516
 50
172.643
 51
276.8614
  0
ARC
  8
0
 10
5350.832
 20
861.2105
 30
0.0
 40
120.7371
 50
356.9583
 51
92.79436
  0
ARC
  8
0
 10
5415.211
 20
862.0504
 30
0.0
 40
56.6516
 50
352.6431
 51
96.8614
  0
ARC
  8
0
 10
5401.129
 20
974.5502
 30
0.0
 40
56.6516
 50
172.643
 51
276.8614
  0
ARC
  8
0
 10
5401.129
 20
974.5502
 30
0.0
 40
56.6516
 50
172.643
 51
276.8614
  0
ARC
  8
0
 10
5464.63
 20
911.0505
 30
0.0
 40
56.6516
 50
172.643
 51
276.8614
  0
CIRCLE
  8
0
 10
1000
 20
7000
 30
0.0
 40
100
  0
CIRCLE
  8
0
 10
1000
 20
8000
 30
0.0
 40
100
  0
CIRCLE
  8
0
 10
2500
 20
7000
 30
0.0
 40
100
  0
CIRCLE
  8
0
 10
2500
 20
8000
 30
0.0
 40
100
  0
CIRCLE
  8
0
 10
100
 20
100
 30
0.0
 40
125
  0
CIRCLE
  8
0
 10
200
 20
200
 30
0.0
 40
200
  0
CIRCLE
  8
0
 10
300
 20
300
 30
0.0
 40
200
  0
CIRCLE
  8
0
 10
350
 20
350
 30
0.0
 40
200
  0
CIRCLE
  8
0
 10
360
 20
360
 30
0.0
 40
200
  0
CIRCLE
  8
0
 10
370
 20
370
 30
0.0
 40
200
  0
ENDSEC
  0
EOF
