  0
SECTION
  2
ENTITIES
  0
ARC
  8
0
 10
134.6208
 20
149.86
 30
0.0
 40
254
 50
269.9997
 51
89.99953
  0
ARC
  8
0
 10
134.6156
 20
-358.14
 30
0.0
 40
254
 50
89.99999
 51
270
  0
ARC
  8
0
 10
134.6141
 20
-739.14
 30
0.0
 40
127
 50
270
 51
89.99988
  0
CIRCLE
  8
0
 10
1000
 20
7000
 30
0.0
 40
100
  0
CIRCLE
  8
0
 10
1000
 20
8000
 30
0.0
 40
100
  0
CIRCLE
  8
0
 10
2000
 20
7000
 30
0.0
 40
100
  0
CIRCLE
  8
0
 10
2000
 20
8000
 30
0.0
 40
100
  0
CIRCLE
  8
0
 10
100
 20
100
 30
0.0
 40
125
  0
CIRCLE
  8
0
 10
200
 20
200
 30
0.0
 40
200
  0
CIRCLE
  8
0
 10
300
 20
300
 30
0.0
 40
200
  0
CIRCLE
  8
0
 10
350
 20
350
 30
0.0
 40
200
  0
CIRCLE
  8
0
 10
360
 20
360
 30
0.0
 40
200
  0
CIRCLE
  8
0
 10
370
 20
370
 30
0.0
 40
200
  0
ENDSEC
  0
EOF
