  0
SECTION
  2
ENTITIES
  0
LINE
  8
0
 10
152.3996
 20
5.079966
 30
0.0
 11
23.00004
 21
-124.9199
 31
0.0
  0
ARC
  8
0
 10
46.27777
 20
-147.42
 30
0.0
 40
32.37445
 50
135.9734
 51
224.0267
  0
LINE
  8
0
 10
22.99994
 20
-169.9199
 30
0.0
 11
152.3996
 21
-299.72
 31
0.0
  0
LINE
  8
0
 10
152.3996
 20
-299.72
 30
0.0
 11
152.3996
 21
5.079966
 31
0.0
  0
LINE
  8
0
 10
152.3996
 20
5.079966
 30
0.0
 11
152.3996
 21
-299.72
 31
0.0
  0
LINE
  8
0
 10
152.3996
 20
-299.72
 30
0.0
 11
281.7994
 21
-169.9202
 31
0.0
  0
ARC
  8
0
 10
304.3712
 20
-193.1284
 30
0.0
 40
32.37445
 50
46.15039
 51
134.2036
  0
LINE
  8
0
 10
327.7991
 20
-169.9199
 30
0.0
 11
457.1988
 21
-299.72
 31
0.0
  0
LINE
  8
0
 10
457.2002
 20
-299.72
 30
0.0
 11
304.8004
 21
-299.72
 31
0.0
  0
LINE
  8
0
 10
304.8
 20
-299.72
 30
0.0
 11
152.4
 21
-299.72
 31
0.0
  0
LINE
  8
0
 10
152.4
 20
-299.72
 30
0.0
 11
5.862769E-06
 21
-299.72
 31
0.0
  0
LINE
  8
0
 10
3.658358E-04
 20
-299.72
 30
0.0
 11
-152.3996
 21
-299.72
 31
0.0
  0
LINE
  8
0
 10
-152.3996
 20
-299.72
 30
0.0
 11
-22.99979
 21
-429.5197
 31
0.0
  0
ARC
  8
0
 10
-.427987
 20
-406.3115
 30
0.0
 40
32.37445
 50
225.7965
 51
313.8499
  0
LINE
  8
0
 10
22.00001
 20
-429.6588
 30
0.0
 11
152.3996
 21
-299.72
 31
0.0
  0
LINE
  8
0
 10
152.3996
 20
-299.72
 30
0.0
 11
281.7994
 21
-429.5197
 31
0.0
  0
ARC
  8
0
 10
258.5217
 20
-452.0198
 30
0.0
 40
32.37445
 50
315.9734
 51
44.02678
  0
LINE
  8
0
 10
281.7994
 20
-474.5199
 30
0.0
 11
152.3999
 21
-604.52
 31
0.0
  0
LINE
  8
0
 10
152.4
 20
-604.52
 30
0.0
 11
152.3996
 21
-299.72
 31
0.0
  0
LINE
  8
0
 10
152.3996
 20
-299.72
 30
0.0
 11
152.4
 21
-604.52
 31
0.0
  0
ARC
  8
0
 10
152.4184
 20
-756.92
 30
0.0
 40
152.4
 50
269.993
 51
90.00703
  0
ARC
  8
0
 10
152.38
 20
-1061.72
 30
0.0
 40
152.4
 50
89.99283
 51
270.0068
  0
ARC
  8
0
 10
152.4162
 20
-1366.52
 30
0.0
 40
152.4
 50
269.993
 51
90.00703
  0
CIRCLE
  8
0
 10
1000
 20
7000
 30
0.0
 40
100
  0
CIRCLE
  8
0
 10
2000
 20
8000
 30
0.0
 40
100
  0
CIRCLE
  8
0
 10
3000
 20
7000
 30
0.0
 40
100
  0
CIRCLE
  8
0
 10
100
 20
100
 30
0.0
 40
128
  0
CIRCLE
  8
0
 10
200
 20
200
 30
0.0
 40
200
  0
CIRCLE
  8
0
 10
300
 20
300
 30
0.0
 40
200
  0
CIRCLE
  8
0
 10
350
 20
350
 30
0.0
 40
200
  0
CIRCLE
  8
0
 10
360
 20
360
 30
0.0
 40
200
  0
CIRCLE
  8
0
 10
370
 20
370
 30
0.0
 40
200
  0
ENDSEC
  0
EOF
