  0
SECTION
  2
ENTITIES
  0
ARC
  8
0
 10
164.8106
 20
127
 30
0.0
 40
155.1894
 50
305.0795
 51
54.92049
  0
ARC
  8
0
 10
231.1424
 20
170.1786
 30
0.0
 40
171.7072
 50
277.6496
 51
29.22008
  0
ARC
  8
0
 10
232.8334
 20
21.16667
 30
0.0
 40
275.9796
 50
274.3986
 51
57.52884
  0
LINE
  8
0
 10
254.0005
 20
-253.9994
 30
0.0
 11
254.0005
 21
-380.9994
 31
0.0
  0
LINE
  8
0
 10
254.0005
 20
-380.9994
 30
0.0
 11
254.0005
 21
-507.9994
 31
0.0
  0
ARC
  8
0
 10
343.1874
 20
-635.0007
 30
0.0
 40
155.1894
 50
125.0792
 51
234.9204
  0
ARC
  8
0
 10
276.8558
 20
-591.8217
 30
0.0
 40
171.7072
 50
150.7796
 51
262.3504
  0
ARC
  8
0
 10
275.1641
 20
-740.8337
 30
0.0
 40
275.9796
 50
122.4708
 51
265.6013
  0
LINE
  8
0
 10
253.9981
 20
-1016
 30
0.0
 11
253.9981
 21
-1143
 31
0.0
  0
LINE
  8
0
 10
253.9981
 20
-1143
 30
0.0
 11
253.9981
 21
-1270
 31
0.0
  0
CIRCLE
  8
0
 10
1000
 20
7000
 30
0.0
 40
100
  0
CIRCLE
  8
0
 10
1000
 20
8000
 30
0.0
 40
100
  0
CIRCLE
  8
0
 10
2000
 20
7000
 30
0.0
 40
100
  0
CIRCLE
  8
0
 10
2000
 20
8000
 30
0.0
 40
100
  0
CIRCLE
  8
0
 10
100
 20
100
 30
0.0
 40
125
  0
CIRCLE
  8
0
 10
200
 20
200
 30
0.0
 40
200
  0
CIRCLE
  8
0
 10
300
 20
300
 30
0.0
 40
200
  0
CIRCLE
  8
0
 10
350
 20
350
 30
0.0
 40
200
  0
CIRCLE
  8
0
 10
360
 20
360
 30
0.0
 40
200
  0
CIRCLE
  8
0
 10
370
 20
370
 30
0.0
 40
200
  0
ENDSEC
  0
EOF
