  0
SECTION
  2
ENTITIES
  0
LINE
  8
0
 10
4965.941
 20
2720.854
 30
0.0
 11
5219.941
 21
2339.853
 31
0.0
  0
ARC
  8
0
 10
5151.879
 20
2277.682
 30
0.0
 40
92.17287
 50
42.41212
 51
113.1505
  0
ARC
  8
0
 10
5124.018
 20
2339.853
 30
0.0
 40
24.08753
 50
110.3518
 51
249.6482
  0
ARC
  8
0
 10
5151.879
 20
2402.022
 30
0.0
 40
92.17287
 50
246.8495
 51
317.5879
  0
LINE
  8
0
 10
5219.941
 20
2339.853
 30
0.0
 11
4965.941
 21
1958.852
 31
0.0
  0
ARC
  8
0
 10
4897.879
 20
1896.682
 30
0.0
 40
92.17287
 50
42.41212
 51
113.1505
  0
ARC
  8
0
 10
4870.018
 20
1958.852
 30
0.0
 40
24.08753
 50
110.3518
 51
249.6482
  0
ARC
  8
0
 10
4897.879
 20
2021.012
 30
0.0
 40
92.17287
 50
246.8495
 51
317.5879
  0
LINE
  8
0
 10
4965.941
 20
1958.852
 30
0.0
 11
4711.941
 21
1577.85
 31
0.0
  0
ARC
  8
0
 10
4779.989
 20
1515.681
 30
0.0
 40
92.17287
 50
66.8495
 51
137.5879
  0
ARC
  8
0
 10
4807.85
 20
1577.85
 30
0.0
 40
24.08753
 50
290.3518
 51
69.64823
  0
ARC
  8
0
 10
4779.989
 20
1640.021
 30
0.0
 40
92.17287
 50
222.4121
 51
293.1505
  0
LINE
  8
0
 10
4711.941
 20
1577.85
 30
0.0
 11
4965.941
 21
1196.85
 31
0.0
  0
ARC
  8
0
 10
5033.988
 20
1134.679
 30
0.0
 40
92.17287
 50
66.8495
 51
137.5879
  0
ARC
  8
0
 10
5061.85
 20
1196.85
 30
0.0
 40
24.08753
 50
290.3518
 51
69.64823
  0
ARC
  8
0
 10
5033.988
 20
1259.02
 30
0.0
 40
92.17287
 50
222.4121
 51
293.1505
  0
CIRCLE
  8
0
 10
1000
 20
7000
 30
0.0
 40
100
  0
CIRCLE
  8
0
 10
1000
 20
8000
 30
0.0
 40
100
  0
CIRCLE
  8
0
 10
2000
 20
7000
 30
0.0
 40
100
  0
CIRCLE
  8
0
 10
2000
 20
8000
 30
0.0
 40
100
  0
CIRCLE
  8
0
 10
100
 20
100
 30
0.0
 40
125
  0
CIRCLE
  8
0
 10
200
 20
200
 30
0.0
 40
200
  0
CIRCLE
  8
0
 10
300
 20
300
 30
0.0
 40
200
  0
CIRCLE
  8
0
 10
350
 20
350
 30
0.0
 40
200
  0
CIRCLE
  8
0
 10
360
 20
360
 30
0.0
 40
200
  0
CIRCLE
  8
0
 10
370
 20
370
 30
0.0
 40
200
  0
ENDSEC
  0
EOF
