  0
SECTION
  2
ENTITIES
  0
LINE
  8
0
 10
4698.632
 20
2246.328
 30
0.0
 11
5073.632
 21
1604.328
 31
0.0
  0
LINE
  8
0
 10
5073.632
 20
1604.328
 30
0.0
 11
5173.632
 21
1604.328
 31
0.0
  0
LINE
  8
0
 10
5173.632
 20
1604.328
 30
0.0
 11
5173.632
 21
1580.328
 31
0.0
  0
LINE
  8
0
 10
5173.632
 20
1580.328
 30
0.0
 11
5073.632
 21
1580.328
 31
0.0
  0
LINE
  8
0
 10
5073.632
 20
1580.328
 30
0.0
 11
5073.632
 21
1556.328
 31
0.0
  0
LINE
  8
0
 10
5073.632
 20
1556.328
 30
0.0
 11
5173.632
 21
1556.328
 31
0.0
  0
LINE
  8
0
 10
5173.632
 20
1556.328
 30
0.0
 11
5173.632
 21
1532.328
 31
0.0
  0
LINE
  8
0
 10
5173.632
 20
1532.328
 30
0.0
 11
5073.632
 21
1532.328
 31
0.0
  0
LINE
  8
0
 10
5073.632
 20
1532.328
 30
0.0
 11
5073.632
 21
1508.328
 31
0.0
  0
LINE
  8
0
 10
5073.632
 20
1508.328
 30
0.0
 11
5173.632
 21
1508.328
 31
0.0
  0
LINE
  8
0
 10
5173.632
 20
1508.328
 30
0.0
 11
5173.632
 21
1484.328
 31
0.0
  0
LINE
  8
0
 10
5173.632
 20
1484.328
 30
0.0
 11
5073.632
 21
1484.328
 31
0.0
  0
LINE
  8
0
 10
5073.632
 20
1484.328
 30
0.0
 11
4698.632
 21
842.3281
 31
0.0
  0
LINE
  8
0
 10
4698.632
 20
842.3281
 30
0.0
 11
4698.632
 21
722.328
 31
0.0
  0
CIRCLE
  8
0
 10
1000
 20
7000
 30
0.0
 40
100
  0
CIRCLE
  8
0
 10
1000
 20
8000
 30
0.0
 40
100
  0
CIRCLE
  8
0
 10
2000
 20
7000
 30
0.0
 40
100
  0
CIRCLE
  8
0
 10
2000
 20
8000
 30
0.0
 40
100
  0
CIRCLE
  8
0
 10
100
 20
100
 30
0.0
 40
125
  0
CIRCLE
  8
0
 10
200
 20
200
 30
0.0
 40
200
  0
CIRCLE
  8
0
 10
300
 20
300
 30
0.0
 40
200
  0
CIRCLE
  8
0
 10
350
 20
350
 30
0.0
 40
200
  0
CIRCLE
  8
0
 10
360
 20
360
 30
0.0
 40
200
  0
CIRCLE
  8
0
 10
370
 20
370
 30
0.0
 40
200
  0
ENDSEC
  0
EOF
