  0
SECTION
  2
ENTITIES
  0
ARC
  8
0
 10
-507.0424
 20
549.7402
 30
0.0
 40
254.9323
 50
90.20912
 51
179.7905
  0
LINE
  8
0
 10
-761.9731
 20
550.6856
 30
0.0
 11
-507.9726
 21
804.6708
 31
0.0
  0
ARC
  8
0
 10
-762.9045
 20
805.6157
 30
0.0
 40
254.9323
 50
270.2066
 51
359.788
  0
ARC
  8
0
 10
-507.0424
 20
551.601
 30
0.0
 40
254.9323
 50
180.2059
 51
269.7872
  0
LINE
  8
0
 10
-507.9901
 20
296.6705
 30
0.0
 11
-761.9731
 21
550.6856
 31
0.0
  0
ARC
  8
0
 10
-762.92
 20
295.7428
 30
0.0
 40
254.9323
 50
.2086693
 51
89.79
  0
CIRCLE
  8
0
 10
1000
 20
7000
 30
0.0
 40
100
  0
CIRCLE
  8
0
 10
1500
 20
8000
 30
0.0
 40
100
  0
CIRCLE
  8
0
 10
2000
 20
7000
 30
0.0
 40
100
  0
CIRCLE
  8
0
 10
2500
 20
8000
 30
0.0
 40
100
  0
CIRCLE
  8
0
 10
3000
 20
7000
 30
0.0
 40
100
  0
CIRCLE
  8
0
 10
100
 20
100
 30
0.0
 40
125
  0
CIRCLE
  8
0
 10
200
 20
200
 30
0.0
 40
200
  0
CIRCLE
  8
0
 10
300
 20
300
 30
0.0
 40
200
  0
CIRCLE
  8
0
 10
350
 20
350
 30
0.0
 40
200
  0
CIRCLE
  8
0
 10
360
 20
360
 30
0.0
 40
200
  0
CIRCLE
  8
0
 10
370
 20
370
 30
0.0
 40
200
  0
ENDSEC
  0
EOF
