  0
SECTION
  2
ENTITIES
  0
LINE
  8
0
 10
5055.964
 20
2722.706
 30
0.0
 11
5055.964
 21
2612.706
 31
0.0
  0
LINE
  8
0
 10
5055.964
 20
2612.706
 30
0.0
 11
5601.965
 21
2612.706
 31
0.0
  0
LINE
  8
0
 10
5601.965
 20
2612.706
 30
0.0
 11
5601.965
 21
2230.706
 31
0.0
  0
LINE
  8
0
 10
5601.965
 20
2230.706
 30
0.0
 11
5381.965
 21
2230.706
 31
0.0
  0
LINE
  8
0
 10
5381.965
 20
2230.706
 30
0.0
 11
5381.965
 21
2378.707
 31
0.0
  0
LINE
  8
0
 10
5381.965
 20
2378.707
 30
0.0
 11
5436.965
 21
2378.707
 31
0.0
  0
LINE
  8
0
 10
5436.965
 20
2378.707
 30
0.0
 11
5436.965
 21
2304.707
 31
0.0
  0
LINE
  8
0
 10
5436.965
 20
2304.707
 30
0.0
 11
5491.965
 21
2304.707
 31
0.0
  0
LINE
  8
0
 10
5491.965
 20
2304.707
 30
0.0
 11
5491.965
 21
2452.706
 31
0.0
  0
LINE
  8
0
 10
5491.965
 20
2452.706
 30
0.0
 11
5271.965
 21
2452.706
 31
0.0
  0
LINE
  8
0
 10
5271.965
 20
2452.706
 30
0.0
 11
5271.965
 21
2070.706
 31
0.0
  0
LINE
  8
0
 10
5271.965
 20
2070.706
 30
0.0
 11
5817.966
 21
2070.706
 31
0.0
  0
LINE
  8
0
 10
5817.966
 20
2070.706
 30
0.0
 11
5817.966
 21
2722.706
 31
0.0
  0
LINE
  8
0
 10
5817.966
 20
2722.706
 30
0.0
 11
5817.966
 21
2070.706
 31
0.0
  0
LINE
  8
0
 10
5817.966
 20
2070.706
 30
0.0
 11
5817.966
 21
1960.706
 31
0.0
  0
LINE
  8
0
 10
5817.966
 20
1960.706
 30
0.0
 11
5055.964
 21
1960.706
 31
0.0
  0
LINE
  8
0
 10
5055.964
 20
1960.706
 30
0.0
 11
5055.964
 21
1579.706
 31
0.0
  0
ARC
  8
0
 10
5381.467
 20
1579.206
 30
0.0
 40
325.5006
 50
8.801199E-02
 51
179.912
  0
ARC
  8
0
 10
5544.465
 20
1579.706
 30
0.0
 40
162.5001
 50
180
 51
0
  0
ARC
  8
0
 10
5409.465
 20
1579.706
 30
0.0
 40
27.50002
 50
0
 51
180
  0
ARC
  8
0
 10
5464.465
 20
1579.706
 30
0.0
 40
27.50002
 50
180
 51
0
  0
ARC
  8
0
 10
5329.465
 20
1579.706
 30
0.0
 40
162.5001
 50
0
 51
180
  0
ARC
  8
0
 10
5492.463
 20
1580.205
 30
0.0
 40
325.5006
 50
180.088
 51
359.912
  0
LINE
  8
0
 10
5817.966
 20
1579.706
 30
0.0
 11
5817.966
 21
1198.706
 31
0.0
  0
LINE
  8
0
 10
5817.966
 20
1198.706
 30
0.0
 11
5055.964
 21
1198.706
 31
0.0
  0
LINE
  8
0
 10
5055.964
 20
1198.706
 30
0.0
 11
5055.964
 21
1579.706
 31
0.0
  0
LINE
  8
0
 10
5055.964
 20
1579.706
 30
0.0
 11
5055.964
 21
1198.706
 31
0.0
  0
CIRCLE
  8
0
 10
1000
 20
7000
 30
0.0
 40
100
  0
CIRCLE
  8
0
 10
2500
 20
7000
 30
0.0
 40
100
  0
CIRCLE
  8
0
 10
100
 20
100
 30
0.0
 40
125
  0
CIRCLE
  8
0
 10
200
 20
200
 30
0.0
 40
200
  0
CIRCLE
  8
0
 10
300
 20
300
 30
0.0
 40
200
  0
CIRCLE
  8
0
 10
350
 20
350
 30
0.0
 40
200
  0
CIRCLE
  8
0
 10
360
 20
360
 30
0.0
 40
200
  0
CIRCLE
  8
0
 10
370
 20
370
 30
0.0
 40
200
  0
ENDSEC
  0
EOF
