  0
SECTION
  2
ENTITIES
  0
LINE
  8
0
 10
1471.131
 20
1386.488
 30
0.0
 11
1235.063
 21
624.4884
 31
0.0
  0
LINE
  8
0
 10
1235.063
 20
624.4884
 30
0.0
 11
1508.605
 21
619.8862
 31
0.0
  0
LINE
  8
0
 10
1508.605
 20
619.8862
 30
0.0
 11
1597.511
 21
361.1548
 31
0.0
  0
LINE
  8
0
 10
1597.511
 20
361.1548
 30
0.0
 11
1686.417
 21
619.8862
 31
0.0
  0
LINE
  8
0
 10
1686.417
 20
619.8862
 30
0.0
 11
1959.959
 21
624.4884
 31
0.0
  0
LINE
  8
0
 10
1959.959
 20
624.4884
 30
0.0
 11
1741.364
 21
788.9955
 31
0.0
  0
LINE
  8
0
 10
1741.364
 20
788.9955
 30
0.0
 11
1821.517
 21
1050.571
 31
0.0
  0
LINE
  8
0
 10
1821.517
 20
1050.571
 30
0.0
 11
1597.511
 21
893.5107
 31
0.0
  0
LINE
  8
0
 10
1597.511
 20
893.5107
 30
0.0
 11
1373.506
 21
1050.571
 31
0.0
  0
LINE
  8
0
 10
1373.506
 20
1050.571
 30
0.0
 11
1453.658
 21
788.9955
 31
0.0
  0
LINE
  8
0
 10
1453.658
 20
788.9955
 30
0.0
 11
1235.063
 21
624.4884
 31
0.0
  0
LINE
  8
0
 10
1235.063
 20
624.4884
 30
0.0
 11
1471.131
 21
-137.5116
 31
0.0
  0
CIRCLE
  8
0
 10
1000
 20
8000
 30
0.0
 40
100
  0
CIRCLE
  8
0
 10
2000
 20
7000
 30
0.0
 40
100
  0
CIRCLE
  8
0
 10
3000
 20
8000
 30
0.0
 40
100
  0
CIRCLE
  8
0
 10
100
 20
100
 30
0.0
 40
125
  0
CIRCLE
  8
0
 10
200
 20
200
 30
0.0
 40
200
  0
CIRCLE
  8
0
 10
300
 20
300
 30
0.0
 40
200
  0
CIRCLE
  8
0
 10
350
 20
350
 30
0.0
 40
200
  0
CIRCLE
  8
0
 10
360
 20
360
 30
0.0
 40
200
  0
CIRCLE
  8
0
 10
370
 20
370
 30
0.0
 40
200
  0
ENDSEC
  0
EOF
