  0
SECTION
  2
ENTITIES
  0
LINE
  8
0
 10
5008.336
 20
2694.132
 30
0.0
 11
5029.508
 21
2662.382
 31
0.0
  0
LINE
  8
0
 10
5029.508
 20
2662.382
 30
0.0
 11
5061.256
 21
2662.382
 31
0.0
  0
LINE
  8
0
 10
5061.256
 20
2662.382
 30
0.0
 11
5040.089
 21
2598.883
 31
0.0
  0
LINE
  8
0
 10
5040.089
 20
2598.883
 30
0.0
 11
5103.585
 21
2598.883
 31
0.0
  0
LINE
  8
0
 10
5103.585
 20
2598.883
 30
0.0
 11
5082.428
 21
2535.382
 31
0.0
  0
LINE
  8
0
 10
5082.428
 20
2535.382
 30
0.0
 11
5145.929
 21
2535.382
 31
0.0
  0
LINE
  8
0
 10
5145.929
 20
2535.382
 30
0.0
 11
5124.757
 21
2471.882
 31
0.0
  0
LINE
  8
0
 10
5124.757
 20
2471.882
 30
0.0
 11
5188.258
 21
2471.882
 31
0.0
  0
LINE
  8
0
 10
5188.258
 20
2471.882
 30
0.0
 11
5167.086
 21
2408.382
 31
0.0
  0
LINE
  8
0
 10
5167.086
 20
2408.382
 30
0.0
 11
5230.587
 21
2408.382
 31
0.0
  0
LINE
  8
0
 10
5230.587
 20
2408.382
 30
0.0
 11
5209.43
 21
2344.882
 31
0.0
  0
LINE
  8
0
 10
5209.43
 20
2344.882
 30
0.0
 11
5272.926
 21
2344.882
 31
0.0
  0
LINE
  8
0
 10
5272.926
 20
2344.882
 30
0.0
 11
5251.759
 21
2281.382
 31
0.0
  0
LINE
  8
0
 10
5251.759
 20
2281.382
 30
0.0
 11
5315.255
 21
2281.382
 31
0.0
  0
LINE
  8
0
 10
5315.255
 20
2281.382
 30
0.0
 11
5294.088
 21
2217.881
 31
0.0
  0
LINE
  8
0
 10
5294.088
 20
2217.881
 30
0.0
 11
5357.589
 21
2217.881
 31
0.0
  0
LINE
  8
0
 10
5357.589
 20
2217.881
 30
0.0
 11
5336.417
 21
2154.382
 31
0.0
  0
LINE
  8
0
 10
5336.417
 20
2154.382
 30
0.0
 11
5399.928
 21
2154.382
 31
0.0
  0
LINE
  8
0
 10
5399.928
 20
2154.382
 30
0.0
 11
5378.756
 21
2090.882
 31
0.0
  0
LINE
  8
0
 10
5378.756
 20
2090.882
 30
0.0
 11
5442.257
 21
2090.882
 31
0.0
  0
LINE
  8
0
 10
5442.257
 20
2090.882
 30
0.0
 11
5421.085
 21
2027.382
 31
0.0
  0
LINE
  8
0
 10
5421.085
 20
2027.382
 30
0.0
 11
5484.586
 21
2027.382
 31
0.0
  0
LINE
  8
0
 10
5484.586
 20
2027.382
 30
0.0
 11
5463.429
 21
1963.882
 31
0.0
  0
LINE
  8
0
 10
5463.429
 20
1963.882
 30
0.0
 11
5495.167
 21
1963.882
 31
0.0
  0
LINE
  8
0
 10
5495.167
 20
1963.882
 30
0.0
 11
5516.339
 21
1932.132
 31
0.0
  0
LINE
  8
0
 10
5516.339
 20
1932.132
 30
0.0
 11
5495.167
 21
1900.381
 31
0.0
  0
LINE
  8
0
 10
5495.167
 20
1900.381
 30
0.0
 11
5463.429
 21
1900.381
 31
0.0
  0
LINE
  8
0
 10
5463.429
 20
1900.381
 30
0.0
 11
5484.586
 21
1836.881
 31
0.0
  0
LINE
  8
0
 10
5484.586
 20
1836.881
 30
0.0
 11
5421.085
 21
1836.881
 31
0.0
  0
LINE
  8
0
 10
5421.085
 20
1836.881
 30
0.0
 11
5442.257
 21
1773.382
 31
0.0
  0
LINE
  8
0
 10
5442.257
 20
1773.382
 30
0.0
 11
5378.756
 21
1773.382
 31
0.0
  0
LINE
  8
0
 10
5378.756
 20
1773.382
 30
0.0
 11
5399.928
 21
1709.882
 31
0.0
  0
LINE
  8
0
 10
5399.928
 20
1709.882
 30
0.0
 11
5336.417
 21
1709.882
 31
0.0
  0
LINE
  8
0
 10
5336.417
 20
1709.882
 30
0.0
 11
5357.589
 21
1646.382
 31
0.0
  0
LINE
  8
0
 10
5357.589
 20
1646.382
 30
0.0
 11
5294.088
 21
1646.382
 31
0.0
  0
LINE
  8
0
 10
5294.088
 20
1646.382
 30
0.0
 11
5315.255
 21
1582.881
 31
0.0
  0
LINE
  8
0
 10
5315.255
 20
1582.881
 30
0.0
 11
5251.759
 21
1582.881
 31
0.0
  0
LINE
  8
0
 10
5251.759
 20
1582.881
 30
0.0
 11
5272.926
 21
1519.381
 31
0.0
  0
LINE
  8
0
 10
5272.926
 20
1519.381
 30
0.0
 11
5209.43
 21
1519.381
 31
0.0
  0
LINE
  8
0
 10
5209.43
 20
1519.381
 30
0.0
 11
5230.587
 21
1455.881
 31
0.0
  0
LINE
  8
0
 10
5230.587
 20
1455.881
 30
0.0
 11
5167.086
 21
1455.881
 31
0.0
  0
LINE
  8
0
 10
5167.086
 20
1455.881
 30
0.0
 11
5188.258
 21
1392.382
 31
0.0
  0
LINE
  8
0
 10
5188.258
 20
1392.382
 30
0.0
 11
5124.757
 21
1392.382
 31
0.0
  0
LINE
  8
0
 10
5124.757
 20
1392.382
 30
0.0
 11
5145.929
 21
1328.882
 31
0.0
  0
LINE
  8
0
 10
5145.929
 20
1328.882
 30
0.0
 11
5082.428
 21
1328.882
 31
0.0
  0
LINE
  8
0
 10
5082.428
 20
1328.882
 30
0.0
 11
5103.585
 21
1265.381
 31
0.0
  0
LINE
  8
0
 10
5103.585
 20
1265.381
 30
0.0
 11
5040.089
 21
1265.381
 31
0.0
  0
LINE
  8
0
 10
5040.089
 20
1265.381
 30
0.0
 11
5061.256
 21
1201.881
 31
0.0
  0
LINE
  8
0
 10
5061.256
 20
1201.881
 30
0.0
 11
5029.508
 21
1201.881
 31
0.0
  0
LINE
  8
0
 10
5029.508
 20
1201.881
 30
0.0
 11
5008.336
 21
1170.132
 31
0.0
  0
CIRCLE
  8
0
 10
1000
 20
7000
 30
0.0
 40
100
  0
CIRCLE
  8
0
 10
2000
 20
8000
 30
0.0
 40
100
  0
CIRCLE
  8
0
 10
3000
 20
7000
 30
0.0
 40
100
  0
CIRCLE
  8
0
 10
100
 20
100
 30
0.0
 40
125
  0
CIRCLE
  8
0
 10
200
 20
200
 30
0.0
 40
200
  0
CIRCLE
  8
0
 10
300
 20
300
 30
0.0
 40
200
  0
CIRCLE
  8
0
 10
350
 20
350
 30
0.0
 40
200
  0
CIRCLE
  8
0
 10
360
 20
360
 30
0.0
 40
200
  0
CIRCLE
  8
0
 10
370
 20
370
 30
0.0
 40
200
  0
ENDSEC
  0
EOF
