  0
SECTION
  2
ENTITIES
  0
ARC
  8
0
 10
4710.105
 20
856.4734
 30
0.0
 40
760.1279
 50
89.94178
 51
180.1405
  0
ARC
  8
0
 10
4585.449
 20
854.1553
 30
0.0
 40
635.4616
 50
90.14088
 51
179.9579
  0
ARC
  8
0
 10
4598.524
 20
1602.106
 30
0.0
 40
113.3021
 50
263.1386
 51
7.356978
  0
ARC
  8
0
 10
4598.524
 20
1602.106
 30
0.0
 40
113.3021
 50
263.1386
 51
7.356978
  0
ARC
  8
0
 10
4471.535
 20
1475.107
 30
0.0
 40
113.3021
 50
263.1386
 51
7.356978
  0
ARC
  8
0
 10
4453.594
 20
859.0154
 30
0.0
 40
503.6107
 50
89.6235
 51
180.5
  0
ARC
  8
0
 10
4324.036
 20
861.5554
 30
0.0
 40
374.1022
 50
89.10182
 51
181.0629
  0
ARC
  8
0
 10
4344.534
 20
1348.11
 30
0.0
 40
113.3021
 50
263.1386
 51
7.356978
  0
ARC
  8
0
 10
4344.534
 20
1348.11
 30
0.0
 40
113.3021
 50
263.1386
 51
7.356978
  0
ARC
  8
0
 10
4216.429
 20
1221.112
 30
0.0
 40
113.3021
 50
263.1386
 51
7.356978
  0
ARC
  8
0
 10
4191.137
 20
867.4332
 30
0.0
 40
241.4718
 50
87.20562
 51
183.0417
  0
ARC
  8
0
 10
4062.358
 20
869.1154
 30
0.0
 40
113.3021
 50
83.13865
 51
187.357
  0
ARC
  8
0
 10
4090.512
 20
1094.113
 30
0.0
 40
113.3021
 50
263.1386
 51
7.356978
  0
ARC
  8
0
 10
4090.512
 20
1094.113
 30
0.0
 40
113.3021
 50
263.1386
 51
7.356978
  0
ARC
  8
0
 10
4062.358
 20
869.1154
 30
0.0
 40
113.3021
 50
83.13865
 51
187.357
  0
ARC
  8
0
 10
3950.777
 20
94.48306
 30
0.0
 40
760.1279
 50
359.8595
 51
90.0582
  0
ARC
  8
0
 10
4075.434
 20
92.16521
 30
0.0
 40
635.4616
 50
.042072
 51
89.85915
  0
ARC
  8
0
 10
4062.358
 20
840.1157
 30
0.0
 40
113.3021
 50
172.643
 51
276.8614
  0
ARC
  8
0
 10
4062.358
 20
840.1157
 30
0.0
 40
113.3021
 50
172.643
 51
276.8614
  0
ARC
  8
0
 10
4189.349
 20
713.1169
 30
0.0
 40
113.3021
 50
172.643
 51
276.8614
  0
ARC
  8
0
 10
4207.289
 20
97.02306
 30
0.0
 40
503.6107
 50
359.5
 51
90.37648
  0
ARC
  8
0
 10
4336.847
 20
99.56308
 30
0.0
 40
374.1022
 50
358.9371
 51
90.89816
  0
ARC
  8
0
 10
4316.35
 20
586.1182
 30
0.0
 40
113.3021
 50
172.643
 51
276.8614
  0
ARC
  8
0
 10
4316.35
 20
586.1182
 30
0.0
 40
113.3021
 50
172.643
 51
276.8614
  0
ARC
  8
0
 10
4444.455
 20
459.1215
 30
0.0
 40
113.3021
 50
172.643
 51
276.8614
  0
ARC
  8
0
 10
4469.747
 20
105.4429
 30
0.0
 40
241.4718
 50
356.9583
 51
92.79436
  0
ARC
  8
0
 10
4598.524
 20
107.1231
 30
0.0
 40
113.3021
 50
352.6431
 51
96.8614
  0
ARC
  8
0
 10
4570.351
 20
332.1208
 30
0.0
 40
113.3021
 50
172.643
 51
276.8614
  0
ARC
  8
0
 10
4570.351
 20
332.1208
 30
0.0
 40
113.3021
 50
172.643
 51
276.8614
  0
ARC
  8
0
 10
4598.524
 20
107.1231
 30
0.0
 40
113.3021
 50
352.6431
 51
96.8614
  0
CIRCLE
  8
0
 10
1000
 20
7000
 30
0.0
 40
100
  0
CIRCLE
  8
0
 10
2500
 20
8000
 30
0.0
 40
100
  0
CIRCLE
  8
0
 10
4000
 20
7000
 30
0.0
 40
100
  0
CIRCLE
  8
0
 10
100
 20
100
 30
0.0
 40
125
  0
CIRCLE
  8
0
 10
200
 20
200
 30
0.0
 40
200
  0
CIRCLE
  8
0
 10
300
 20
300
 30
0.0
 40
200
  0
CIRCLE
  8
0
 10
350
 20
350
 30
0.0
 40
200
  0
CIRCLE
  8
0
 10
360
 20
360
 30
0.0
 40
200
  0
CIRCLE
  8
0
 10
370
 20
370
 30
0.0
 40
200
  0
ENDSEC
  0
EOF
