  0
SECTION
  2
ENTITIES
  0
ARC
  8
0
 10
5136.177
 20
1709.184
 30
0.0
 40
109.4684
 50
129.3368
 51
230.6632
  0
ARC
  8
0
 10
4997.403
 20
1539.852
 30
0.0
 40
109.4684
 50
309.3368
 51
50.6632
  0
ARC
  8
0
 10
5136.177
 20
1370.519
 30
0.0
 40
109.4684
 50
129.3368
 51
230.6632
  0
ARC
  8
0
 10
4939.54
 20
1128.832
 30
0.0
 40
202.1087
 50
50.9784
 51
129.0216
  0
ARC
  8
0
 10
4939.54
 20
1442.87
 30
0.0
 40
202.1087
 50
230.9784
 51
309.0216
  0
ARC
  8
0
 10
5194.04
 20
1128.832
 30
0.0
 40
202.1087
 50
50.9784
 51
129.0216
  0
ARC
  8
0
 10
5194.04
 20
1442.87
 30
0.0
 40
202.1087
 50
230.9784
 51
309.0216
  0
CIRCLE
  8
0
 10
1000
 20
7000
 30
0.0
 40
100
  0
CIRCLE
  8
0
 10
2000
 20
8000
 30
0.0
 40
100
  0
CIRCLE
  8
0
 10
3000
 20
7000
 30
0.0
 40
100
  0
CIRCLE
  8
0
 10
100
 20
100
 30
0.0
 40
125
  0
CIRCLE
  8
0
 10
200
 20
200
 30
0.0
 40
200
  0
CIRCLE
  8
0
 10
300
 20
300
 30
0.0
 40
200
  0
CIRCLE
  8
0
 10
350
 20
350
 30
0.0
 40
200
  0
CIRCLE
  8
0
 10
360
 20
360
 30
0.0
 40
200
  0
CIRCLE
  8
0
 10
370
 20
370
 30
0.0
 40
200
  0
ENDSEC
  0
EOF
