  0
SECTION
  2
ENTITIES
  0
LINE
  8
0
 10
4891.979
 20
1514.82
 30
0.0
 11
5145.982
 21
1260.82
 31
0.0
  0
ARC
  8
0
 10
5181.031
 20
1295.389
 30
0.0
 40
49.22798
 50
159.9859
 51
224.6134
  0
ARC
  8
0
 10
5114.229
 20
1323.4
 30
0.0
 40
23.3733
 50
331.4739
 51
203.892
  0
ARC
  8
0
 10
5083.399
 20
1292.57
 30
0.0
 40
23.3733
 50
66.10798
 51
298.5261
  0
ARC
  8
0
 10
5111.412
 20
1225.78
 30
0.0
 40
49.22798
 50
45.38665
 51
110.0141
  0
ARC
  8
0
 10
5110.938
 20
1295.389
 30
0.0
 40
49.22798
 50
315.3866
 51
20.01407
  0
ARC
  8
0
 10
5177.73
 20
1323.4
 30
0.0
 40
23.3733
 50
336.108
 51
208.5262
  0
ARC
  8
0
 10
5208.57
 20
1292.57
 30
0.0
 40
23.3733
 50
241.4738
 51
113.892
  0
ARC
  8
0
 10
5180.558
 20
1225.78
 30
0.0
 40
49.22798
 50
69.98593
 51
134.6134
  0
ARC
  8
0
 10
5180.558
 20
1295.861
 30
0.0
 40
49.22798
 50
225.3866
 51
290.0141
  0
ARC
  8
0
 10
5208.57
 20
1229.07
 30
0.0
 40
23.3733
 50
246.108
 51
118.5262
  0
ARC
  8
0
 10
5177.73
 20
1198.23
 30
0.0
 40
23.3733
 50
151.4738
 51
23.89202
  0
ARC
  8
0
 10
5110.938
 20
1226.25
 30
0.0
 40
49.22798
 50
339.9859
 51
44.61335
  0
ARC
  8
0
 10
5181.031
 20
1226.25
 30
0.0
 40
49.22798
 50
135.3867
 51
200.014
  0
ARC
  8
0
 10
5114.229
 20
1198.23
 30
0.0
 40
23.3733
 50
156.108
 51
28.52615
  0
ARC
  8
0
 10
5083.399
 20
1229.07
 30
0.0
 40
23.3733
 50
61.47383
 51
293.8921
  0
ARC
  8
0
 10
5111.412
 20
1295.861
 30
0.0
 40
49.22798
 50
249.9859
 51
314.6134
  0
LINE
  8
0
 10
5145.982
 20
1260.82
 30
0.0
 11
4891.979
 21
1006.82
 31
0.0
  0
CIRCLE
  8
0
 10
1000
 20
7000
 30
0.0
 40
100
  0
CIRCLE
  8
0
 10
1500
 20
8000
 30
0.0
 40
100
  0
CIRCLE
  8
0
 10
2000
 20
7000
 30
0.0
 40
100
  0
CIRCLE
  8
0
 10
100
 20
100
 30
0.0
 40
125
  0
CIRCLE
  8
0
 10
200
 20
200
 30
0.0
 40
200
  0
CIRCLE
  8
0
 10
300
 20
300
 30
0.0
 40
200
  0
CIRCLE
  8
0
 10
350
 20
350
 30
0.0
 40
200
  0
CIRCLE
  8
0
 10
360
 20
360
 30
0.0
 40
200
  0
CIRCLE
  8
0
 10
370
 20
370
 30
0.0
 40
200
  0
ENDSEC
  0
EOF
