  0
SECTION
  2
ENTITIES
  0
LINE
  8
0
 10
2024.154
 20
7494.759
 30
0.0
 11
1960.654
 21
7431.259
 31
0.0
  0
LINE
  8
0
 10
1960.654
 20
7431.259
 30
0.0
 11
1897.154
 21
7367.759
 31
0.0
  0
LINE
  8
0
 10
1897.154
 20
7367.759
 30
0.0
 11
1833.654
 21
7304.259
 31
0.0
  0
LINE
  8
0
 10
1833.654
 20
7304.259
 30
0.0
 11
1897.154
 21
7240.759
 31
0.0
  0
LINE
  8
0
 10
1897.154
 20
7240.759
 30
0.0
 11
1960.654
 21
7177.259
 31
0.0
  0
LINE
  8
0
 10
1960.654
 20
7177.259
 30
0.0
 11
2024.154
 21
7113.759
 31
0.0
  0
LINE
  8
0
 10
2024.154
 20
7113.759
 30
0.0
 11
2087.654
 21
7050.259
 31
0.0
  0
LINE
  8
0
 10
2087.654
 20
7050.259
 30
0.0
 11
2151.154
 21
6986.759
 31
0.0
  0
LINE
  8
0
 10
2151.154
 20
6986.759
 30
0.0
 11
2214.654
 21
7050.259
 31
0.0
  0
LINE
  8
0
 10
2214.654
 20
7050.259
 30
0.0
 11
2278.154
 21
7113.759
 31
0.0
  0
LINE
  8
0
 10
2278.154
 20
7113.759
 30
0.0
 11
2214.654
 21
7177.259
 31
0.0
  0
LINE
  8
0
 10
2214.654
 20
7177.259
 30
0.0
 11
2151.154
 21
7240.759
 31
0.0
  0
LINE
  8
0
 10
2151.154
 20
7240.759
 30
0.0
 11
2087.654
 21
7304.259
 31
0.0
  0
LINE
  8
0
 10
2087.654
 20
7304.259
 30
0.0
 11
2024.154
 21
7367.759
 31
0.0
  0
LINE
  8
0
 10
2024.154
 20
7367.759
 30
0.0
 11
1960.654
 21
7431.259
 31
0.0
  0
LINE
  8
0
 10
1960.654
 20
7431.259
 30
0.0
 11
1897.154
 21
7494.759
 31
0.0
  0
LINE
  8
0
 10
1897.154
 20
7494.759
 30
0.0
 11
1833.654
 21
7431.259
 31
0.0
  0
LINE
  8
0
 10
1833.654
 20
7431.259
 30
0.0
 11
1897.154
 21
7367.759
 31
0.0
  0
LINE
  8
0
 10
1897.154
 20
7367.759
 30
0.0
 11
1960.654
 21
7304.259
 31
0.0
  0
LINE
  8
0
 10
1960.654
 20
7304.259
 30
0.0
 11
2024.154
 21
7240.759
 31
0.0
  0
LINE
  8
0
 10
2024.154
 20
7240.759
 30
0.0
 11
2087.654
 21
7177.259
 31
0.0
  0
LINE
  8
0
 10
2087.654
 20
7177.259
 30
0.0
 11
2151.154
 21
7113.759
 31
0.0
  0
LINE
  8
0
 10
2151.154
 20
7113.759
 30
0.0
 11
2214.654
 21
7050.259
 31
0.0
  0
LINE
  8
0
 10
2214.654
 20
7050.259
 30
0.0
 11
2278.154
 21
6986.759
 31
0.0
  0
LINE
  8
0
 10
2278.154
 20
6986.759
 30
0.0
 11
2341.654
 21
7050.259
 31
0.0
  0
LINE
  8
0
 10
2341.654
 20
7050.259
 30
0.0
 11
2278.154
 21
7113.759
 31
0.0
  0
LINE
  8
0
 10
2278.154
 20
7113.759
 30
0.0
 11
2341.654
 21
7177.259
 31
0.0
  0
LINE
  8
0
 10
2341.654
 20
7177.259
 30
0.0
 11
2278.154
 21
7240.759
 31
0.0
  0
LINE
  8
0
 10
2278.154
 20
7240.759
 30
0.0
 11
2341.654
 21
7304.259
 31
0.0
  0
LINE
  8
0
 10
2341.654
 20
7304.259
 30
0.0
 11
2278.154
 21
7367.759
 31
0.0
  0
LINE
  8
0
 10
2278.154
 20
7367.759
 30
0.0
 11
2341.654
 21
7431.259
 31
0.0
  0
LINE
  8
0
 10
2341.654
 20
7431.259
 30
0.0
 11
2278.154
 21
7494.759
 31
0.0
  0
LINE
  8
0
 10
2278.154
 20
7494.759
 30
0.0
 11
2341.654
 21
7431.259
 31
0.0
  0
LINE
  8
0
 10
2341.654
 20
7431.259
 30
0.0
 11
2278.154
 21
7367.759
 31
0.0
  0
LINE
  8
0
 10
2278.154
 20
7367.759
 30
0.0
 11
2341.654
 21
7304.259
 31
0.0
  0
LINE
  8
0
 10
2341.654
 20
7304.259
 30
0.0
 11
2278.154
 21
7240.759
 31
0.0
  0
LINE
  8
0
 10
2278.154
 20
7240.759
 30
0.0
 11
2341.654
 21
7177.259
 31
0.0
  0
LINE
  8
0
 10
2341.654
 20
7177.259
 30
0.0
 11
2278.154
 21
7113.759
 31
0.0
  0
LINE
  8
0
 10
2278.154
 20
7113.759
 30
0.0
 11
2341.654
 21
7050.259
 31
0.0
  0
LINE
  8
0
 10
2341.654
 20
7050.259
 30
0.0
 11
2278.154
 21
6986.759
 31
0.0
  0
LINE
  8
0
 10
2278.154
 20
6986.759
 30
0.0
 11
2214.654
 21
6923.259
 31
0.0
  0
LINE
  8
0
 10
2214.654
 20
6923.259
 30
0.0
 11
2151.154
 21
6859.759
 31
0.0
  0
LINE
  8
0
 10
2151.154
 20
6859.759
 30
0.0
 11
2087.654
 21
6796.259
 31
0.0
  0
LINE
  8
0
 10
2087.654
 20
6796.259
 30
0.0
 11
2024.154
 21
6732.759
 31
0.0
  0
LINE
  8
0
 10
2024.154
 20
6732.759
 30
0.0
 11
1960.654
 21
6669.259
 31
0.0
  0
LINE
  8
0
 10
1960.654
 20
6669.259
 30
0.0
 11
1897.154
 21
6605.759
 31
0.0
  0
LINE
  8
0
 10
1897.154
 20
6605.759
 30
0.0
 11
1833.654
 21
6542.259
 31
0.0
  0
LINE
  8
0
 10
1833.654
 20
6542.259
 30
0.0
 11
1897.154
 21
6478.759
 31
0.0
  0
LINE
  8
0
 10
1897.154
 20
6478.759
 30
0.0
 11
1960.654
 21
6542.259
 31
0.0
  0
LINE
  8
0
 10
1960.654
 20
6542.259
 30
0.0
 11
2024.154
 21
6605.759
 31
0.0
  0
LINE
  8
0
 10
2024.154
 20
6605.759
 30
0.0
 11
2087.654
 21
6669.259
 31
0.0
  0
LINE
  8
0
 10
2087.654
 20
6669.259
 30
0.0
 11
2151.154
 21
6732.759
 31
0.0
  0
LINE
  8
0
 10
2151.154
 20
6732.759
 30
0.0
 11
2214.654
 21
6796.259
 31
0.0
  0
LINE
  8
0
 10
2214.654
 20
6796.259
 30
0.0
 11
2278.154
 21
6859.759
 31
0.0
  0
LINE
  8
0
 10
2278.154
 20
6859.759
 30
0.0
 11
2214.654
 21
6923.259
 31
0.0
  0
LINE
  8
0
 10
2214.654
 20
6923.259
 30
0.0
 11
2151.154
 21
6986.759
 31
0.0
  0
LINE
  8
0
 10
2151.154
 20
6986.759
 30
0.0
 11
2087.654
 21
6923.259
 31
0.0
  0
LINE
  8
0
 10
2087.654
 20
6923.259
 30
0.0
 11
2024.154
 21
6859.759
 31
0.0
  0
LINE
  8
0
 10
2024.154
 20
6859.759
 30
0.0
 11
1960.654
 21
6796.259
 31
0.0
  0
LINE
  8
0
 10
1960.654
 20
6796.259
 30
0.0
 11
1897.154
 21
6732.759
 31
0.0
  0
LINE
  8
0
 10
1897.154
 20
6732.759
 30
0.0
 11
1833.654
 21
6669.259
 31
0.0
  0
LINE
  8
0
 10
1833.654
 20
6669.259
 30
0.0
 11
1897.154
 21
6605.759
 31
0.0
  0
LINE
  8
0
 10
1897.154
 20
6605.759
 30
0.0
 11
1960.654
 21
6542.259
 31
0.0
  0
LINE
  8
0
 10
1960.654
 20
6542.259
 30
0.0
 11
2024.154
 21
6478.759
 31
0.0
  0
LINE
  8
0
 10
2024.154
 20
6478.759
 30
0.0
 11
2087.654
 21
6542.259
 31
0.0
  0
LINE
  8
0
 10
2087.654
 20
6542.259
 30
0.0
 11
2151.154
 21
6605.759
 31
0.0
  0
LINE
  8
0
 10
2151.154
 20
6605.759
 30
0.0
 11
2214.654
 21
6669.259
 31
0.0
  0
LINE
  8
0
 10
2214.654
 20
6669.259
 30
0.0
 11
2278.154
 21
6732.759
 31
0.0
  0
LINE
  8
0
 10
2278.154
 20
6732.759
 30
0.0
 11
2214.654
 21
6796.259
 31
0.0
  0
LINE
  8
0
 10
2214.654
 20
6796.259
 30
0.0
 11
2151.154
 21
6859.759
 31
0.0
  0
LINE
  8
0
 10
2151.154
 20
6859.759
 30
0.0
 11
2087.654
 21
6923.259
 31
0.0
  0
LINE
  8
0
 10
2087.654
 20
6923.259
 30
0.0
 11
2024.154
 21
6986.759
 31
0.0
  0
CIRCLE
  8
0
 10
1000
 20
7000
 30
0.0
 40
50
  0
CIRCLE
  8
0
 10
2000
 20
7000
 30
0.0
 40
50
  0
CIRCLE
  8
0
 10
3000
 20
7000
 30
0.0
 40
50
  0
CIRCLE
  8
0
 10
100
 20
100
 30
0.0
 40
128
  0
CIRCLE
  8
0
 10
200
 20
200
 30
0.0
 40
190
  0
CIRCLE
  8
0
 10
300
 20
300
 30
0.0
 40
180
  0
CIRCLE
  8
0
 10
350
 20
350
 30
0.0
 40
202
  0
CIRCLE
  8
0
 10
360
 20
360
 30
0.0
 40
202
  0
CIRCLE
  8
0
 10
370
 20
370
 30
0.0
 40
200
  0
ENDSEC
  0
EOF
