  0
SECTION
  2
ENTITIES
  0
ARC
  8
0
 10
370.8867
 20
1153.044
 30
0.0
 40
391.2433
 50
280.2122
 51
358.5291
  0
ARC
  8
0
 10
513.555
 20
824.9912
 30
0.0
 40
92.85342
 50
147.7799
 51
217.8645
  0
ARC
  8
0
 10
400.065
 20
920.3034
 30
0.0
 40
57.60733
 50
307.3324
 51
56.33118
  0
ARC
  8
0
 10
494.1541
 20
1083.366
 30
0.0
 40
130.8253
 50
241.6358
 51
12.75333
  0
ARC
  8
0
 10
568.759
 20
1126.821
 30
0.0
 40
54.96058
 50
344.622
 51
128.2245
  0
ARC
  8
0
 10
373.5016
 20
1160.794
 30
0.0
 40
161.5132
 50
284.2481
 51
3.266722
  0
ARC
  8
0
 10
317.6118
 20
1169.886
 30
0.0
 40
191.2663
 50
300.0028
 51
56.29329
  0
ARC
  8
0
 10
380.6886
 20
1322.007
 30
0.0
 40
43.62902
 50
311.3348
 51
9.21966
  0
ARC
  8
0
 10
383.0341
 20
1335.683
 30
0.0
 40
53.44971
 50
121.0013
 51
299.6847
  0
ARC
  8
0
 10
346.7273
 20
1321.819
 30
0.0
 40
60.32107
 50
269.7879
 51
81.63342
  0
ARC
  8
0
 10
440.5214
 20
1137.365
 30
0.0
 40
155.7184
 50
127.1401
 51
238.2171
  0
ARC
  8
0
 10
390.328
 20
1147.432
 30
0.0
 40
145.9459
 50
113.7691
 51
257.4046
  0
ARC
  8
0
 10
357.7103
 20
1338.241
 30
0.0
 40
62.95634
 50
132.7138
 51
245.4014
  0
ARC
  8
0
 10
349.2362
 20
1188.073
 30
0.0
 40
199.3862
 50
99.88576
 51
255.2592
  0
ARC
  8
0
 10
274.1794
 20
1146.717
 30
0.0
 40
153.4086
 50
185.5992
 51
279.1225
  0
ARC
  8
0
 10
113.2161
 20
1059.051
 30
0.0
 40
73.16969
 50
83.49726
 51
204.2495
  0
ARC
  8
0
 10
192.0411
 20
1048.805
 30
0.0
 40
146.8801
 50
187.7498
 51
324.2542
  0
ARC
  8
0
 10
356.1919
 20
917.3482
 30
0.0
 40
64.05999
 50
134.5505
 51
265.3517
  0
ARC
  8
0
 10
341.45
 20
799.6993
 30
0.0
 40
54.64064
 50
316.3723
 51
79.93427
  0
ARC
  8
0
 10
386.0756
 20
375.9232
 30
0.0
 40
386.1089
 50
90.75315
 51
179.2467
  0
ARC
  8
0
 10
391.1143
 20
391.0452
 30
0.0
 40
391.2433
 50
181.4711
 51
259.7879
  0
ARC
  8
0
 10
248.4443
 20
62.99356
 30
0.0
 40
92.85342
 50
322.1352
 51
32.21963
  0
ARC
  8
0
 10
361.935
 20
158.3049
 30
0.0
 40
57.60733
 50
123.6685
 51
232.6672
  0
ARC
  8
0
 10
267.8474
 20
321.3687
 30
0.0
 40
130.8253
 50
167.2463
 51
298.364
  0
ARC
  8
0
 10
193.2427
 20
364.8238
 30
0.0
 40
54.96058
 50
51.775
 51
195.3776
  0
ARC
  8
0
 10
388.5004
 20
398.795
 30
0.0
 40
161.5132
 50
176.7329
 51
255.7515
  0
ARC
  8
0
 10
444.3904
 20
407.8863
 30
0.0
 40
191.2663
 50
123.7064
 51
239.9969
  0
ARC
  8
0
 10
381.3148
 20
560.0085
 30
0.0
 40
43.62902
 50
170.78
 51
228.6648
  0
ARC
  8
0
 10
378.9694
 20
573.6845
 30
0.0
 40
53.44971
 50
240.315
 51
58.99826
  0
ARC
  8
0
 10
415.2761
 20
559.8198
 30
0.0
 40
60.32107
 50
98.36616
 51
270.212
  0
ARC
  8
0
 10
321.4805
 20
375.3672
 30
0.0
 40
155.7184
 50
301.7827
 51
52.85947
  0
ARC
  8
0
 10
371.6739
 20
385.4333
 30
0.0
 40
145.9459
 50
282.5952
 51
66.23042
  0
ARC
  8
0
 10
404.2932
 20
576.2422
 30
0.0
 40
62.95634
 50
294.5984
 51
47.28571
  0
ARC
  8
0
 10
412.766
 20
426.0736
 30
0.0
 40
199.3862
 50
284.7406
 51
80.11377
  0
ARC
  8
0
 10
487.8225
 20
384.7177
 30
0.0
 40
153.4086
 50
260.8772
 51
354.4006
  0
ARC
  8
0
 10
648.7851
 20
297.0503
 30
0.0
 40
73.16969
 50
335.7502
 51
96.50238
  0
ARC
  8
0
 10
569.96
 20
286.8051
 30
0.0
 40
146.8801
 50
215.7455
 51
352.2499
  0
ARC
  8
0
 10
405.8082
 20
155.3492
 30
0.0
 40
64.05999
 50
274.648
 51
45.44901
  0
ARC
  8
0
 10
420.549
 20
37.70021
 30
0.0
 40
54.64064
 50
100.0654
 51
223.6273
  0
ARC
  8
0
 10
375.92
 20
-386.0754
 30
0.0
 40
386.1089
 50
.7529914
 51
89.24655
  0
CIRCLE
  8
0
 10
1000
 20
7000
 30
0.0
 40
100
  0
CIRCLE
  8
0
 10
2500
 20
8000
 30
0.0
 40
100
  0
CIRCLE
  8
0
 10
4000
 20
7000
 30
0.0
 40
100
  0
CIRCLE
  8
0
 10
100
 20
100
 30
0.0
 40
125
  0
CIRCLE
  8
0
 10
200
 20
200
 30
0.0
 40
200
  0
CIRCLE
  8
0
 10
300
 20
300
 30
0.0
 40
200
  0
CIRCLE
  8
0
 10
350
 20
350
 30
0.0
 40
200
  0
CIRCLE
  8
0
 10
360
 20
360
 30
0.0
 40
200
  0
CIRCLE
  8
0
 10
370
 20
370
 30
0.0
 40
200
  0
ENDSEC
  0
EOF
