  0
SECTION
  2
ENTITIES
  0
ARC
  8
0
 10
5227.66
 20
2474.12
 30
0.0
 40
127
 50
270
 51
0
  0
ARC
  8
0
 10
5227.66
 20
2410.62
 30
0.0
 40
63.49999
 50
180
 51
270
  0
ARC
  8
0
 10
5214.159
 20
2410.62
 30
0.0
 40
49.99999
 50
0
 51
180
  0
ARC
  8
0
 10
5214.159
 20
2410.62
 30
0.0
 40
49.99999
 50
0
 51
180
  0
ARC
  8
0
 10
5227.66
 20
2410.62
 30
0.0
 40
63.49999
 50
180
 51
270
  0
ARC
  8
0
 10
5227.66
 20
2283.62
 30
0.0
 40
63.49999
 50
0
 51
89.99999
  0
ARC
  8
0
 10
5241.161
 20
2283.62
 30
0.0
 40
49.99999
 50
180
 51
0
  0
ARC
  8
0
 10
5241.161
 20
2283.62
 30
0.0
 40
49.99999
 50
180
 51
0
  0
ARC
  8
0
 10
5227.66
 20
2283.62
 30
0.0
 40
63.49999
 50
0
 51
89.99999
  0
ARC
  8
0
 10
5227.66
 20
2220.12
 30
0.0
 40
127
 50
89.99999
 51
180
  0
ARC
  8
0
 10
5037.162
 20
2220.12
 30
0.0
 40
63.49999
 50
0
 51
89.99999
  0
ARC
  8
0
 10
5037.162
 20
2233.62
 30
0.0
 40
49.99999
 50
89.99999
 51
270
  0
ARC
  8
0
 10
5037.162
 20
2233.62
 30
0.0
 40
49.99999
 50
89.99999
 51
270
  0
ARC
  8
0
 10
5037.162
 20
2220.12
 30
0.0
 40
63.49999
 50
0
 51
89.99999
  0
ARC
  8
0
 10
4973.661
 20
2220.12
 30
0.0
 40
127
 50
270
 51
0
  0
ARC
  8
0
 10
4973.661
 20
1966.12
 30
0.0
 40
127
 50
89.99999
 51
180
  0
ARC
  8
0
 10
4910.16
 20
1966.12
 30
0.0
 40
63.49999
 50
180
 51
270
  0
ARC
  8
0
 10
4910.16
 20
1952.62
 30
0.0
 40
49.99999
 50
270
 51
89.99999
  0
ARC
  8
0
 10
4910.16
 20
1952.62
 30
0.0
 40
49.99999
 50
270
 51
89.99999
  0
ARC
  8
0
 10
4910.16
 20
1966.12
 30
0.0
 40
63.49999
 50
180
 51
270
  0
ARC
  8
0
 10
4719.662
 20
1966.12
 30
0.0
 40
127
 50
270
 51
0
  0
ARC
  8
0
 10
4719.662
 20
1902.62
 30
0.0
 40
63.49999
 50
180
 51
270
  0
ARC
  8
0
 10
4706.161
 20
1902.62
 30
0.0
 40
49.99999
 50
0
 51
180
  0
ARC
  8
0
 10
4706.161
 20
1902.62
 30
0.0
 40
49.99999
 50
0
 51
180
  0
ARC
  8
0
 10
4719.662
 20
1902.62
 30
0.0
 40
63.49999
 50
180
 51
270
  0
ARC
  8
0
 10
4719.662
 20
1775.62
 30
0.0
 40
63.49999
 50
0
 51
89.99999
  0
ARC
  8
0
 10
4733.158
 20
1775.62
 30
0.0
 40
49.99999
 50
180
 51
0
  0
ARC
  8
0
 10
4733.158
 20
1775.62
 30
0.0
 40
49.99999
 50
180
 51
0
  0
ARC
  8
0
 10
4719.662
 20
1775.62
 30
0.0
 40
63.49999
 50
0
 51
89.99999
  0
ARC
  8
0
 10
4719.662
 20
1712.12
 30
0.0
 40
127
 50
89.99999
 51
180
  0
ARC
  8
0
 10
4719.662
 20
1712.12
 30
0.0
 40
127
 50
180
 51
270
  0
ARC
  8
0
 10
4719.662
 20
1648.62
 30
0.0
 40
63.49999
 50
270
 51
0
  0
ARC
  8
0
 10
4733.158
 20
1648.62
 30
0.0
 40
49.99999
 50
0
 51
180
  0
ARC
  8
0
 10
4733.158
 20
1648.62
 30
0.0
 40
49.99999
 50
0
 51
180
  0
ARC
  8
0
 10
4719.662
 20
1648.62
 30
0.0
 40
63.49999
 50
270
 51
0
  0
ARC
  8
0
 10
4719.662
 20
1521.62
 30
0.0
 40
63.49999
 50
89.99999
 51
180
  0
ARC
  8
0
 10
4706.161
 20
1521.62
 30
0.0
 40
49.99999
 50
180
 51
0
  0
ARC
  8
0
 10
4706.161
 20
1521.62
 30
0.0
 40
49.99999
 50
180
 51
0
  0
ARC
  8
0
 10
4719.662
 20
1521.62
 30
0.0
 40
63.49999
 50
89.99999
 51
180
  0
ARC
  8
0
 10
4719.662
 20
1458.121
 30
0.0
 40
127
 50
0
 51
89.99999
  0
ARC
  8
0
 10
4910.16
 20
1458.121
 30
0.0
 40
63.49999
 50
89.99999
 51
180
  0
ARC
  8
0
 10
4910.16
 20
1471.62
 30
0.0
 40
49.99999
 50
270
 51
89.99999
  0
ARC
  8
0
 10
4910.16
 20
1471.62
 30
0.0
 40
49.99999
 50
270
 51
89.99999
  0
ARC
  8
0
 10
4910.16
 20
1458.121
 30
0.0
 40
63.49999
 50
89.99999
 51
180
  0
ARC
  8
0
 10
4973.661
 20
1458.121
 30
0.0
 40
127
 50
180
 51
270
  0
ARC
  8
0
 10
4973.661
 20
1204.12
 30
0.0
 40
127
 50
0
 51
89.99999
  0
ARC
  8
0
 10
5037.162
 20
1204.12
 30
0.0
 40
63.49999
 50
270
 51
0
  0
ARC
  8
0
 10
5037.162
 20
1190.621
 30
0.0
 40
49.99999
 50
89.99999
 51
270
  0
ARC
  8
0
 10
5037.162
 20
1190.621
 30
0.0
 40
49.99999
 50
89.99999
 51
270
  0
ARC
  8
0
 10
5037.162
 20
1204.12
 30
0.0
 40
63.49999
 50
270
 51
0
  0
ARC
  8
0
 10
5227.66
 20
1204.12
 30
0.0
 40
127
 50
180
 51
270
  0
ARC
  8
0
 10
5227.66
 20
1140.621
 30
0.0
 40
63.49999
 50
270
 51
0
  0
ARC
  8
0
 10
5241.161
 20
1140.621
 30
0.0
 40
49.99999
 50
0
 51
180
  0
ARC
  8
0
 10
5241.161
 20
1140.621
 30
0.0
 40
49.99999
 50
0
 51
180
  0
ARC
  8
0
 10
5227.66
 20
1140.621
 30
0.0
 40
63.49999
 50
270
 51
0
  0
ARC
  8
0
 10
5227.66
 20
1013.62
 30
0.0
 40
63.49999
 50
89.99999
 51
180
  0
ARC
  8
0
 10
5214.159
 20
1013.62
 30
0.0
 40
49.99999
 50
180
 51
0
  0
ARC
  8
0
 10
5214.159
 20
1013.62
 30
0.0
 40
49.99999
 50
180
 51
0
  0
ARC
  8
0
 10
5227.66
 20
1013.62
 30
0.0
 40
63.49999
 50
89.99999
 51
180
  0
ARC
  8
0
 10
5227.66
 20
950.1202
 30
0.0
 40
127
 50
0
 51
89.99999
  0
CIRCLE
  8
0
 10
1000
 20
7000
 30
0.0
 40
100
  0
CIRCLE
  8
0
 10
1000
 20
8000
 30
0.0
 40
100
  0
CIRCLE
  8
0
 10
2500
 20
7000
 30
0.0
 40
100
  0
CIRCLE
  8
0
 10
2500
 20
8000
 30
0.0
 40
100
  0
CIRCLE
  8
0
 10
100
 20
100
 30
0.0
 40
125
  0
CIRCLE
  8
0
 10
200
 20
200
 30
0.0
 40
200
  0
CIRCLE
  8
0
 10
300
 20
300
 30
0.0
 40
200
  0
CIRCLE
  8
0
 10
350
 20
350
 30
0.0
 40
200
  0
CIRCLE
  8
0
 10
360
 20
360
 30
0.0
 40
200
  0
CIRCLE
  8
0
 10
370
 20
370
 30
0.0
 40
200
  0
ENDSEC
  0
EOF
