  0
SECTION
  2
ENTITIES
  0
ARC
  8
0
 10
3.166638
 20
254.5
 30
0.0
 40
97.83463
 50
313.8954
 51
46.10439
  0
ARC
  8
0
 10
.018287
 20
252.9734
 30
0.0
 40
98.9734
 50
269.9895
 51
315.8221
  0
ARC
  8
0
 10
.018287
 20
252.9734
 30
0.0
 40
98.9734
 50
269.9895
 51
315.8221
  0
LINE
  8
0
 10
70.9993
 20
183.9993
 30
0.0
 11
311.0002
 21
-55.99974
 31
0.0
  0
ARC
  8
0
 10
382.3057
 20
-125.6941
 30
0.0
 40
99.70854
 50
314.3451
 51
135.6548
  0
LINE
  8
0
 10
451.9995
 20
-197.0003
 30
0.0
 11
691.0001
 21
-437.9997
 31
0.0
  0
ARC
  8
0
 10
764.4385
 20
-507.9827
 30
0.0
 40
101.4436
 50
136.3801
 51
224.4322
  0
LINE
  8
0
 10
691.9997
 20
-578.9996
 30
0.0
 11
451.9999
 21
-818.9993
 31
0.0
  0
ARC
  8
0
 10
380.2837
 20
-888.2833
 30
0.0
 40
99.717
 50
225.9885
 51
44.01175
  0
ARC
  8
0
 10
383.4387
 20
-888.9825
 30
0.0
 40
101.4436
 50
136.3801
 51
224.4322
  0
ARC
  8
0
 10
383.4387
 20
-888.9825
 30
0.0
 40
101.4436
 50
136.3801
 51
224.4322
  0
LINE
  8
0
 10
311
 20
-959.9996
 30
0.0
 11
70.99998
 21
-1199
 31
0.0
  0
ARC
  8
0
 10
.4589626
 20
-1269.951
 30
0.0
 40
100.0502
 50
45.16597
 51
269.7371
  0
ARC
  8
0
 10
.4589626
 20
-1269.951
 30
0.0
 40
100.0502
 50
45.16597
 51
269.7371
  0
CIRCLE
  8
0
 10
1000
 20
7000
 30
0.0
 40
100
  0
CIRCLE
  8
0
 10
1000
 20
8000
 30
0.0
 40
100
  0
CIRCLE
  8
0
 10
2500
 20
7000
 30
0.0
 40
100
  0
CIRCLE
  8
0
 10
2500
 20
8000
 30
0.0
 40
100
  0
CIRCLE
  8
0
 10
100
 20
100
 30
0.0
 40
125
  0
CIRCLE
  8
0
 10
200
 20
200
 30
0.0
 40
200
  0
CIRCLE
  8
0
 10
300
 20
300
 30
0.0
 40
200
  0
CIRCLE
  8
0
 10
350
 20
350
 30
0.0
 40
200
  0
CIRCLE
  8
0
 10
360
 20
360
 30
0.0
 40
200
  0
CIRCLE
  8
0
 10
370
 20
370
 30
0.0
 40
200
  0
ENDSEC
  0
EOF
