  0
SECTION
  2
ENTITIES
  0
ARC
  8
0
 10
95.75216
 20
94.74828
 30
0.0
 40
94.74937
 50
269.6963
 51
.3035637
  0
ARC
  8
0
 10
94.74731
 20
-94.74779
 30
0.0
 40
94.74937
 50
89.69621
 51
180.3038
  0
ARC
  8
0
 10
72.26516
 20
-118.2345
 30
0.0
 40
75.83303
 50
162.3557
 51
287.6429
  0
ARC
  8
0
 10
22.98336
 20
-167.5151
 30
0.0
 40
75.83303
 50
342.356
 51
107.643
  0
ARC
  8
0
 10
-.5031129
 20
-189.9971
 30
0.0
 40
94.74937
 50
89.69621
 51
180.3038
  0
ARC
  8
0
 10
-189.9992
 20
-191.0012
 30
0.0
 40
94.74937
 50
269.6963
 51
.3035637
  0
ARC
  8
0
 10
-191.0043
 20
-380.4973
 30
0.0
 40
94.74937
 50
89.69621
 51
180.3038
  0
ARC
  8
0
 10
-380.5004
 20
-381.5014
 30
0.0
 40
94.74937
 50
269.6963
 51
.3035637
  0
ARC
  8
0
 10
-403.9863
 20
-403.983
 30
0.0
 40
75.83303
 50
162.3557
 51
287.6429
  0
ARC
  8
0
 10
-453.2681
 20
-453.2636
 30
0.0
 40
75.83303
 50
342.356
 51
107.643
  0
ARC
  8
0
 10
-475.7509
 20
-476.7513
 30
0.0
 40
94.74937
 50
269.6963
 51
.3035637
  0
ARC
  8
0
 10
-476.756
 20
-666.2474
 30
0.0
 40
94.74937
 50
89.69621
 51
180.3038
  0
ARC
  8
0
 10
-476.756
 20
-667.2516
 30
0.0
 40
94.74937
 50
179.6964
 51
270.3038
  0
ARC
  8
0
 10
-475.7509
 20
-856.7477
 30
0.0
 40
94.74937
 50
359.6964
 51
90.30389
  0
ARC
  8
0
 10
-453.2681
 20
-880.2354
 30
0.0
 40
75.83303
 50
252.3571
 51
17.64432
  0
ARC
  8
0
 10
-403.9863
 20
-929.5159
 30
0.0
 40
75.83303
 50
72.35741
 51
197.6445
  0
ARC
  8
0
 10
-380.5004
 20
-951.9976
 30
0.0
 40
94.74937
 50
359.6964
 51
90.30389
  0
ARC
  8
0
 10
-191.0043
 20
-953.0016
 30
0.0
 40
94.74937
 50
179.6964
 51
270.3038
  0
ARC
  8
0
 10
-189.9992
 20
-1142.498
 30
0.0
 40
94.74937
 50
359.6964
 51
90.30389
  0
ARC
  8
0
 10
-.5031129
 20
-1143.502
 30
0.0
 40
94.74937
 50
179.6963
 51
270.3038
  0
ARC
  8
0
 10
22.98336
 20
-1165.984
 30
0.0
 40
75.83303
 50
252.3571
 51
17.64438
  0
ARC
  8
0
 10
72.26516
 20
-1215.264
 30
0.0
 40
75.83303
 50
72.35741
 51
197.6445
  0
ARC
  8
0
 10
94.74731
 20
-1238.751
 30
0.0
 40
94.74937
 50
179.6963
 51
270.3038
  0
ARC
  8
0
 10
95.75216
 20
-1428.247
 30
0.0
 40
94.74937
 50
359.6964
 51
90.30389
  0
CIRCLE
  8
0
 10
1000
 20
7000
 30
0.0
 40
100
  0
CIRCLE
  8
0
 10
1000
 20
8000
 30
0.0
 40
100
  0
CIRCLE
  8
0
 10
2500
 20
7000
 30
0.0
 40
100
  0
CIRCLE
  8
0
 10
2500
 20
8000
 30
0.0
 40
100
  0
CIRCLE
  8
0
 10
4000
 20
7000
 30
0.0
 40
100
  0
CIRCLE
  8
0
 10
4000
 20
8000
 30
0.0
 40
100
  0
CIRCLE
  8
0
 10
100
 20
100
 30
0.0
 40
126
  0
CIRCLE
  8
0
 10
200
 20
200
 30
0.0
 40
204
  0
CIRCLE
  8
0
 10
300
 20
300
 30
0.0
 40
200
  0
CIRCLE
  8
0
 10
350
 20
350
 30
0.0
 40
200
  0
CIRCLE
  8
0
 10
360
 20
360
 30
0.0
 40
200
  0
CIRCLE
  8
0
 10
370
 20
370
 30
0.0
 40
200
  0
ENDSEC
  0
EOF
