  0
SECTION
  2
ENTITIES
  0
ARC
  8
0
 10
5078.848
 20
2115.436
 30
0.0
 40
82.26196
 50
91.79014
 51
199.7354
  0
ARC
  8
0
 10
4980.367
 20
2086.455
 30
0.0
 40
21.0916
 50
171.7561
 51
3.269338
  0
ARC
  8
0
 10
4881.016
 20
2132.445
 30
0.0
 40
89.47035
 50
331.2979
 51
86.64613
  0
ARC
  8
0
 10
4896.094
 20
2133.615
 30
0.0
 40
88.69502
 50
96.3777
 51
210.0099
  0
ARC
  8
0
 10
4802.608
 20
2085.065
 30
0.0
 40
17.19872
 50
184.8878
 51
14.09208
  0
ARC
  8
0
 10
4695.788
 20
2097.926
 30
0.0
 40
90.82874
 50
350.9286
 51
237.3739
  0
ARC
  8
0
 10
4628.596
 20
2010.395
 30
0.0
 40
21.29127
 50
240.7921
 51
31.20985
  0
ARC
  8
0
 10
4524.499
 20
1977.234
 30
0.0
 40
94.83819
 50
8.839491
 51
280.0072
  0
ARC
  8
0
 10
4528.249
 20
1862.676
 30
0.0
 40
24.69548
 50
242.8649
 51
58.97322
  0
ARC
  8
0
 10
4437.066
 20
1776.436
 30
0.0
 40
102.5536
 50
38.80754
 51
284.8839
  0
ARC
  8
0
 10
4458.507
 20
1651.216
 30
0.0
 40
26.56198
 50
267.1287
 51
79.34921
  0
ARC
  8
0
 10
4396.179
 20
1555.916
 30
0.0
 40
91.92481
 50
48.42966
 51
152.9921
  0
ARC
  8
0
 10
4396.179
 20
1639.406
 30
0.0
 40
91.92481
 50
207.0079
 51
311.5703
  0
ARC
  8
0
 10
4698.327
 20
2378.344
 30
0.0
 40
842.9446
 50
253.376
 51
292.1594
  0
LINE
  8
0
 10
5016.275
 20
1597.655
 30
0.0
 11
5017.134
 21
1608.816
 31
0.0
  0
ARC
  8
0
 10
4698.327
 20
2378.344
 30
0.0
 40
832.9446
 50
252.9792
 51
292.5037
  0
ARC
  8
0
 10
4396.179
 20
1639.406
 30
0.0
 40
81.92483
 50
210.6335
 51
315.4024
  0
ARC
  8
0
 10
4396.179
 20
1555.916
 30
0.0
 40
81.92483
 50
46.25349
 51
149.3665
  0
ARC
  8
0
 10
4458.507
 20
1651.216
 30
0.0
 40
36.56198
 50
261.0662
 51
83.26321
  0
ARC
  8
0
 10
4437.066
 20
1776.436
 30
0.0
 40
92.55367
 50
43.17153
 51
286.1357
  0
ARC
  8
0
 10
4529.367
 20
1862.905
 30
0.0
 40
33.92053
 50
223.0367
 51
67.6576
  0
ARC
  8
0
 10
4524.499
 20
1977.234
 30
0.0
 40
84.8382
 50
7.145465
 51
282.0838
  0
ARC
  8
0
 10
4629.577
 20
2011.064
 30
0.0
 40
31.28448
 50
228.0817
 51
31.51674
  0
ARC
  8
0
 10
4695.788
 20
2097.926
 30
0.0
 40
80.82874
 50
350.1856
 51
240.7189
  0
ARC
  8
0
 10
4802.608
 20
2085.065
 30
0.0
 40
27.1987
 50
181.944
 51
17.44193
  0
ARC
  8
0
 10
4896.294
 20
2133.625
 30
0.0
 40
78.86854
 50
97.71705
 51
210.8154
  0
ARC
  8
0
 10
4881.016
 20
2132.445
 30
0.0
 40
79.47036
 50
329.4763
 51
86.61472
  0
ARC
  8
0
 10
4980.586
 20
2086.764
 30
0.0
 40
31.56766
 50
170.2961
 51
1.6218
  0
ARC
  8
0
 10
5078.848
 20
2115.436
 30
0.0
 40
72.26199
 50
92.038
 51
202.6069
  0
LINE
  8
0
 10
5076.275
 20
2187.644
 30
0.0
 11
5076.275
 21
2127.655
 31
0.0
  0
ARC
  8
0
 10
5073.526
 20
2112.655
 30
0.0
 40
15.24997
 50
280.3889
 51
79.61117
  0
ARC
  8
0
 10
5079.024
 20
2112.655
 30
0.0
 40
15.24997
 50
100.3889
 51
259.6111
  0
ARC
  8
0
 10
5079.024
 20
2112.655
 30
0.0
 40
15.24997
 50
100.3889
 51
259.6111
  0
LINE
  8
0
 10
5076.275
 20
2097.655
 30
0.0
 11
5076.275
 21
2017.655
 31
0.0
  0
LINE
  8
0
 10
5076.275
 20
2017.655
 30
0.0
 11
5061.065
 21
2014.935
 31
0.0
  0
LINE
  8
0
 10
5061.065
 20
2014.935
 30
0.0
 11
5048.365
 21
2072.435
 31
0.0
  0
ARC
  8
0
 10
5046.216
 20
2082.206
 30
0.0
 40
9.999984
 50
282.4531
 51
102.4531
  0
ARC
  8
0
 10
5046.216
 20
2082.206
 30
0.0
 40
9.999984
 50
102.4531
 51
282.4531
  0
LINE
  8
0
 10
5048.365
 20
2072.435
 30
0.0
 11
5061.065
 21
2014.935
 31
0.0
  0
ARC
  8
0
 10
5077.608
 20
1966.334
 30
0.0
 40
51.34051
 50
108.7872
 51
251.4613
  0
ARC
  8
0
 10
4855.596
 20
1857.325
 30
0.0
 40
214.3462
 50
322.7762
 51
16.34887
  0
LINE
  8
0
 10
5026.275
 20
1727.655
 30
0.0
 11
5017.134
 21
1608.816
 31
0.0
  0
LINE
  8
0
 10
5017.134
 20
1608.816
 30
0.0
 11
5016.275
 21
1597.655
 31
0.0
  0
ARC
  8
0
 10
5167.745
 20
1600.245
 30
0.0
 40
151.4963
 50
180.9795
 51
222.6233
  0
ARC
  8
0
 10
5032.725
 20
1541.206
 30
0.0
 40
49.51443
 50
298.4043
 51
331.5957
  0
ARC
  8
0
 10
5032.725
 20
1541.206
 30
0.0
 40
49.51443
 50
298.4043
 51
331.5957
  0
LINE
  8
0
 10
5056.275
 20
1497.655
 30
0.0
 11
5056.275
 21
1455.656
 31
0.0
  0
LINE
  8
0
 10
5056.275
 20
1455.656
 30
0.0
 11
5042.115
 21
1437.216
 31
0.0
  0
LINE
  8
0
 10
5042.115
 20
1437.216
 30
0.0
 11
5056.275
 21
1455.656
 31
0.0
  0
LINE
  8
0
 10
5056.275
 20
1455.656
 30
0.0
 11
5076.275
 21
1435.656
 31
0.0
  0
ARC
  8
0
 10
5073.707
 20
1353.435
 30
0.0
 40
82.26196
 50
340.2646
 51
88.20984
  0
ARC
  8
0
 10
5172.198
 20
1324.456
 30
0.0
 40
21.0916
 50
176.7307
 51
8.243843
  0
ARC
  8
0
 10
5271.543
 20
1370.446
 30
0.0
 40
89.47035
 50
93.35386
 51
208.7022
  0
ARC
  8
0
 10
5256.456
 20
1371.615
 30
0.0
 40
88.69502
 50
329.9901
 51
83.62228
  0
ARC
  8
0
 10
5349.946
 20
1323.066
 30
0.0
 40
17.19872
 50
165.9079
 51
355.1122
  0
ARC
  8
0
 10
5456.776
 20
1335.926
 30
0.0
 40
90.82874
 50
302.6261
 51
189.0714
  0
ARC
  8
0
 10
5523.955
 20
1248.396
 30
0.0
 40
21.29127
 50
148.7901
 51
299.2079
  0
ARC
  8
0
 10
5628.057
 20
1215.236
 30
0.0
 40
94.83819
 50
259.9927
 51
171.1605
  0
ARC
  8
0
 10
5624.307
 20
1100.676
 30
0.0
 40
24.69548
 50
121.0268
 51
297.1351
  0
ARC
  8
0
 10
5715.482
 20
1014.437
 30
0.0
 40
102.5536
 50
255.116
 51
141.1925
  0
ARC
  8
0
 10
5694.058
 20
889.2161
 30
0.0
 40
26.56198
 50
100.6508
 51
272.8713
  0
ARC
  8
0
 10
5756.376
 20
793.9172
 30
0.0
 40
91.92481
 50
27.00792
 51
131.5703
  0
ARC
  8
0
 10
5756.376
 20
877.3961
 30
0.0
 40
91.92481
 50
228.4297
 51
332.992
  0
ARC
  8
0
 10
5454.224
 20
1616.336
 30
0.0
 40
842.9446
 50
247.8407
 51
286.624
  0
LINE
  8
0
 10
5136.275
 20
835.6567
 30
0.0
 11
5135.416
 21
846.8163
 31
0.0
  0
ARC
  8
0
 10
5454.224
 20
1616.336
 30
0.0
 40
832.9446
 50
247.4963
 51
287.0208
  0
ARC
  8
0
 10
5756.376
 20
877.3961
 30
0.0
 40
81.92483
 50
224.5976
 51
329.3666
  0
ARC
  8
0
 10
5756.376
 20
793.9172
 30
0.0
 40
81.92483
 50
30.63346
 51
133.7465
  0
ARC
  8
0
 10
5694.058
 20
889.2161
 30
0.0
 40
36.56198
 50
96.73678
 51
278.9338
  0
ARC
  8
0
 10
5715.482
 20
1014.437
 30
0.0
 40
92.55367
 50
253.8643
 51
136.8285
  0
ARC
  8
0
 10
5623.184
 20
1100.906
 30
0.0
 40
33.92053
 50
112.3424
 51
316.9634
  0
ARC
  8
0
 10
5628.057
 20
1215.236
 30
0.0
 40
84.8382
 50
257.9162
 51
172.8546
  0
ARC
  8
0
 10
5522.974
 20
1249.065
 30
0.0
 40
31.28448
 50
148.4833
 51
311.9183
  0
ARC
  8
0
 10
5456.776
 20
1335.926
 30
0.0
 40
80.82874
 50
299.2811
 51
189.8143
  0
ARC
  8
0
 10
5349.946
 20
1323.066
 30
0.0
 40
27.1987
 50
162.5581
 51
358.0559
  0
ARC
  8
0
 10
5256.255
 20
1371.626
 30
0.0
 40
78.86854
 50
329.1845
 51
82.28294
  0
ARC
  8
0
 10
5271.543
 20
1370.446
 30
0.0
 40
79.47036
 50
93.38531
 51
210.5237
  0
ARC
  8
0
 10
5171.978
 20
1324.766
 30
0.0
 40
31.56766
 50
178.3782
 51
9.703918
  0
ARC
  8
0
 10
5073.707
 20
1353.435
 30
0.0
 40
72.26199
 50
337.3931
 51
87.96204
  0
LINE
  8
0
 10
5076.275
 20
1425.656
 30
0.0
 11
5076.275
 21
1255.656
 31
0.0
  0
LINE
  8
0
 10
5076.275
 20
1255.656
 30
0.0
 11
5091.485
 21
1252.936
 31
0.0
  0
LINE
  8
0
 10
5091.558
 20
1253.266
 30
0.0
 11
5104.185
 21
1310.436
 31
0.0
  0
ARC
  8
0
 10
5106.348
 20
1320.205
 30
0.0
 40
9.999984
 50
77.54686
 51
257.5469
  0
ARC
  8
0
 10
5106.348
 20
1320.205
 30
0.0
 40
9.999984
 50
257.5469
 51
77.54686
  0
LINE
  8
0
 10
5104.185
 20
1310.436
 30
0.0
 11
5091.558
 21
1253.266
 31
0.0
  0
ARC
  8
0
 10
5077.315
 20
1206.066
 30
0.0
 40
48.97042
 50
357.7673
 51
73.18441
  0
LINE
  8
0
 10
5126.255
 20
1204.156
 30
0.0
 11
5150.796
 21
1194.816
 31
0.0
  0
LINE
  8
0
 10
5150.796
 20
1194.816
 30
0.0
 11
5121.104
 21
1183.516
 31
0.0
  0
ARC
  8
0
 10
5063.814
 20
1214.957
 30
0.0
 40
65.34757
 50
294.8445
 51
331.2376
  0
ARC
  8
0
 10
5296.954
 20
1095.327
 30
0.0
 40
214.3462
 50
163.6511
 51
217.2238
  0
LINE
  8
0
 10
5126.275
 20
965.6565
 30
0.0
 11
5135.416
 21
846.8163
 31
0.0
  0
LINE
  8
0
 10
5135.416
 20
846.8163
 30
0.0
 11
5136.275
 21
835.6567
 31
0.0
  0
ARC
  8
0
 10
4984.805
 20
838.2471
 30
0.0
 40
151.4963
 50
317.3767
 51
359.0205
  0
ARC
  8
0
 10
5119.825
 20
779.2066
 30
0.0
 40
49.51443
 50
208.4043
 51
241.5957
  0
ARC
  8
0
 10
5119.825
 20
779.2066
 30
0.0
 40
49.51443
 50
208.4043
 51
241.5957
  0
LINE
  8
0
 10
5096.275
 20
735.6569
 30
0.0
 11
5096.275
 21
693.6573
 31
0.0
  0
LINE
  8
0
 10
5096.275
 20
693.6573
 30
0.0
 11
5110.435
 21
675.2175
 31
0.0
  0
LINE
  8
0
 10
5110.435
 20
675.2175
 30
0.0
 11
5096.275
 21
693.6573
 31
0.0
  0
LINE
  8
0
 10
5096.275
 20
693.6573
 30
0.0
 11
5076.275
 21
673.6573
 31
0.0
  0
CIRCLE
  8
0
 10
1000
 20
7000
 30
0.0
 40
100
  0
CIRCLE
  8
0
 10
1000
 20
8000
 30
0.0
 40
100
  0
CIRCLE
  8
0
 10
4000
 20
7000
 30
0.0
 40
100
  0
CIRCLE
  8
0
 10
4000
 20
8000
 30
0.0
 40
100
  0
CIRCLE
  8
0
 10
100
 20
100
 30
0.0
 40
125
  0
CIRCLE
  8
0
 10
200
 20
200
 30
0.0
 40
200
  0
CIRCLE
  8
0
 10
300
 20
300
 30
0.0
 40
200
  0
CIRCLE
  8
0
 10
350
 20
350
 30
0.0
 40
200
  0
CIRCLE
  8
0
 10
360
 20
360
 30
0.0
 40
200
  0
CIRCLE
  8
0
 10
370
 20
370
 30
0.0
 40
200
  0
ENDSEC
  0
EOF
