  0
SECTION
  2
ENTITIES
  0
ARC
  8
0
 10
462.0499
 20
593.1193
 30
0.0
 40
43.93546
 50
184.2796
 51
92.5217
  0
ARC
  8
0
 10
372.9675
 20
591.1078
 30
0.0
 40
45.28712
 50
358.3965
 51
235.3774
  0
ARC
  8
0
 10
330.5332
 20
534.2391
 30
0.0
 40
25.75322
 50
278.4352
 51
49.56422
  0
ARC
  8
0
 10
332.6878
 20
466.9435
 30
0.0
 40
41.85258
 50
87.7772
 51
324.7379
  0
ARC
  8
0
 10
320.9321
 20
468.7399
 30
0.0
 40
52.75733
 50
330.5251
 51
352.4855
  0
ARC
  8
0
 10
416.8523
 20
458.3278
 30
0.0
 40
43.757
 50
313.9788
 51
175.3957
  0
ARC
  8
0
 10
466.5158
 20
408.6993
 30
0.0
 40
26.47216
 50
136.742
 51
256.0116
  0
CIRCLE
  8
0
 10
1000
 20
7000
 30
0.0
 40
100
  0
CIRCLE
  8
0
 10
1500
 20
7000
 30
0.0
 40
100
  0
CIRCLE
  8
0
 10
100
 20
100
 30
0.0
 40
125
  0
CIRCLE
  8
0
 10
200
 20
200
 30
0.0
 40
200
  0
CIRCLE
  8
0
 10
300
 20
300
 30
0.0
 40
200
  0
CIRCLE
  8
0
 10
350
 20
350
 30
0.0
 40
200
  0
CIRCLE
  8
0
 10
360
 20
360
 30
0.0
 40
200
  0
CIRCLE
  8
0
 10
370
 20
370
 30
0.0
 40
200
  0
ENDSEC
  0
EOF
