  0
SECTION
  2
ENTITIES
  0
ARC
  8
0
 10
4514.518
 20
1627.523
 30
0.0
 40
238.2057
 50
351.9998
 51
87.28858
  0
ARC
  8
0
 10
4699.985
 20
1606.291
 30
0.0
 40
51.81468
 50
189.6914
 51
346.6998
  0
ARC
  8
0
 10
4688.487
 20
1603.544
 30
0.0
 40
40.02444
 50
70.37245
 51
188.5791
  0
ARC
  8
0
 10
4688.487
 20
1603.544
 30
0.0
 40
40.02444
 50
70.37245
 51
188.5791
  0
ARC
  8
0
 10
4699.985
 20
1606.291
 30
0.0
 40
51.81468
 50
189.6914
 51
346.6998
  0
ARC
  8
0
 10
4514.518
 20
1627.523
 30
0.0
 40
238.2057
 50
351.9998
 51
87.28858
  0
ARC
  8
0
 10
4520.46
 20
1483.179
 30
0.0
 40
382.3247
 50
.716231
 51
89.20145
  0
ARC
  8
0
 10
4764.377
 20
1491.563
 30
0.0
 40
138.4263
 50
278.9866
 51
358.5068
  0
ARC
  8
0
 10
4757.864
 20
1417.838
 30
0.0
 40
68.99824
 50
124.7882
 51
294.069
  0
ARC
  8
0
 10
4741.248
 20
1430.966
 30
0.0
 40
49.12021
 50
1.875571
 51
117.599
  0
ARC
  8
0
 10
4741.248
 20
1430.966
 30
0.0
 40
49.12021
 50
1.875571
 51
117.599
  0
ARC
  8
0
 10
4757.864
 20
1417.838
 30
0.0
 40
68.99824
 50
124.7882
 51
294.069
  0
ARC
  8
0
 10
4764.377
 20
1491.563
 30
0.0
 40
138.4263
 50
278.9866
 51
358.5068
  0
ARC
  8
0
 10
5045.692
 20
1449.939
 30
0.0
 40
147.0479
 50
100.1694
 51
165.0151
  0
ARC
  8
0
 10
5047.868
 20
1531.677
 30
0.0
 40
68.99824
 50
304.7881
 51
114.069
  0
ARC
  8
0
 10
5064.475
 20
1518.539
 30
0.0
 40
49.12021
 50
181.8756
 51
297.599
  0
ARC
  8
0
 10
5064.475
 20
1518.539
 30
0.0
 40
49.12021
 50
181.8756
 51
297.599
  0
ARC
  8
0
 10
5047.868
 20
1531.677
 30
0.0
 40
68.99824
 50
304.7881
 51
114.069
  0
ARC
  8
0
 10
5045.692
 20
1449.939
 30
0.0
 40
147.0479
 50
100.1694
 51
165.0151
  0
ARC
  8
0
 10
5284.999
 20
1485.677
 30
0.0
 40
382.2508
 50
179.6587
 51
270.1382
  0
ARC
  8
0
 10
5293.312
 20
1341.524
 30
0.0
 40
238.2057
 50
172.932
 51
268.2208
  0
ARC
  8
0
 10
5107.538
 20
1359.728
 30
0.0
 40
51.81468
 50
10.6236
 51
167.632
  0
ARC
  8
0
 10
5118.987
 20
1362.676
 30
0.0
 40
40.02444
 50
251.3047
 51
9.511347
  0
ARC
  8
0
 10
5118.987
 20
1362.676
 30
0.0
 40
40.02444
 50
251.3047
 51
9.511347
  0
ARC
  8
0
 10
5107.538
 20
1359.728
 30
0.0
 40
51.81468
 50
10.6236
 51
167.632
  0
ARC
  8
0
 10
5293.312
 20
1341.524
 30
0.0
 40
238.2057
 50
172.932
 51
268.2208
  0
ARC
  8
0
 10
5047.819
 20
1110.247
 30
0.0
 40
238.2057
 50
263.0702
 51
358.359
  0
ARC
  8
0
 10
5030.047
 20
924.4207
 30
0.0
 40
51.81468
 50
100.7617
 51
257.7703
  0
ARC
  8
0
 10
5027.076
 20
935.8705
 30
0.0
 40
40.02444
 50
341.4429
 51
99.64952
  0
ARC
  8
0
 10
5027.076
 20
935.8705
 30
0.0
 40
40.02444
 50
341.4429
 51
99.64952
  0
ARC
  8
0
 10
5030.047
 20
924.4207
 30
0.0
 40
51.81468
 50
100.7617
 51
257.7703
  0
ARC
  8
0
 10
5047.819
 20
1110.247
 30
0.0
 40
238.2057
 50
263.0702
 51
358.359
  0
ARC
  8
0
 10
4903.674
 20
1101.584
 30
0.0
 40
382.2508
 50
269.7968
 51
.276368
  0
ARC
  8
0
 10
4942.014
 20
863.1744
 30
0.0
 40
149.2089
 50
190.7274
 51
254.5742
  0
ARC
  8
0
 10
4858.264
 20
863.8537
 30
0.0
 40
68.99824
 50
35.07225
 51
204.3531
  0
ARC
  8
0
 10
4871.314
 20
880.5285
 30
0.0
 40
49.12021
 50
272.1597
 51
27.88306
  0
ARC
  8
0
 10
4871.314
 20
880.5285
 30
0.0
 40
49.12021
 50
272.1597
 51
27.88306
  0
ARC
  8
0
 10
4858.264
 20
863.8537
 30
0.0
 40
68.99824
 50
35.07225
 51
204.3531
  0
ARC
  8
0
 10
4942.014
 20
863.1744
 30
0.0
 40
149.2089
 50
190.7274
 51
254.5742
  0
ARC
  8
0
 10
4899.429
 20
582.3406
 30
0.0
 40
137.0266
 50
8.816818
 51
88.79208
  0
ARC
  8
0
 10
4971.856
 20
575.1667
 30
0.0
 40
68.99824
 50
214.8253
 51
24.10615
  0
ARC
  8
0
 10
4958.738
 20
558.5419
 30
0.0
 40
49.12021
 50
91.91276
 51
207.6361
  0
ARC
  8
0
 10
4958.738
 20
558.5419
 30
0.0
 40
49.12021
 50
91.91276
 51
207.6361
  0
ARC
  8
0
 10
4971.856
 20
575.1667
 30
0.0
 40
68.99824
 50
214.8253
 51
24.10615
  0
ARC
  8
0
 10
4899.429
 20
582.3406
 30
0.0
 40
137.0266
 50
8.816818
 51
88.79208
  0
ARC
  8
0
 10
4908.021
 20
337.0567
 30
0.0
 40
382.3247
 50
90.85439
 51
179.3396
  0
ARC
  8
0
 10
4763.689
 20
330.772
 30
0.0
 40
238.2057
 50
82.13797
 51
177.4268
  0
ARC
  8
0
 10
4784.472
 20
516.2792
 30
0.0
 40
51.81468
 50
279.8296
 51
76.83799
  0
ARC
  8
0
 10
4787.248
 20
504.7891
 30
0.0
 40
40.02444
 50
160.5106
 51
278.7173
  0
ARC
  8
0
 10
4787.248
 20
504.7891
 30
0.0
 40
40.02444
 50
160.5106
 51
278.7173
  0
ARC
  8
0
 10
4784.472
 20
516.2792
 30
0.0
 40
51.81468
 50
279.8296
 51
76.83799
  0
ARC
  8
0
 10
4763.689
 20
330.772
 30
0.0
 40
238.2057
 50
82.13797
 51
177.4268
  0
CIRCLE
  8
0
 10
1000
 20
7000
 30
0.0
 40
100
  0
CIRCLE
  8
0
 10
2500
 20
8000
 30
0.0
 40
100
  0
CIRCLE
  8
0
 10
4000
 20
7000
 30
0.0
 40
100
  0
CIRCLE
  8
0
 10
100
 20
100
 30
0.0
 40
125
  0
CIRCLE
  8
0
 10
200
 20
200
 30
0.0
 40
200
  0
CIRCLE
  8
0
 10
300
 20
300
 30
0.0
 40
200
  0
CIRCLE
  8
0
 10
350
 20
350
 30
0.0
 40
200
  0
CIRCLE
  8
0
 10
360
 20
360
 30
0.0
 40
200
  0
CIRCLE
  8
0
 10
370
 20
370
 30
0.0
 40
200
  0
ENDSEC
  0
EOF
