  0
SECTION
  2
ENTITIES
  0
ARC
  8
0
 10
463.9829
 20
549.2266
 30
0.0
 40
87.8709
 50
184.2796
 51
92.5217
  0
ARC
  8
0
 10
285.8181
 20
545.2035
 30
0.0
 40
90.57422
 50
358.3965
 51
235.3774
  0
ARC
  8
0
 10
200.9496
 20
431.4661
 30
0.0
 40
51.50643
 50
278.4352
 51
49.56422
  0
ARC
  8
0
 10
205.2588
 20
296.875
 30
0.0
 40
83.70514
 50
87.7772
 51
324.7379
  0
ARC
  8
0
 10
181.7474
 20
300.4678
 30
0.0
 40
105.5146
 50
330.5251
 51
352.4855
  0
ARC
  8
0
 10
373.5877
 20
279.6436
 30
0.0
 40
87.51398
 50
313.9788
 51
175.3957
  0
ARC
  8
0
 10
472.9147
 20
180.3867
 30
0.0
 40
52.94431
 50
136.742
 51
256.0116
  0
CIRCLE
  8
0
 10
1000
 20
7000
 30
0.0
 40
100
  0
CIRCLE
  8
0
 10
2000
 20
7000
 30
0.0
 40
100
  0
CIRCLE
  8
0
 10
100
 20
100
 30
0.0
 40
125
  0
CIRCLE
  8
0
 10
200
 20
200
 30
0.0
 40
200
  0
CIRCLE
  8
0
 10
300
 20
300
 30
0.0
 40
200
  0
CIRCLE
  8
0
 10
350
 20
350
 30
0.0
 40
200
  0
CIRCLE
  8
0
 10
360
 20
360
 30
0.0
 40
200
  0
CIRCLE
  8
0
 10
370
 20
370
 30
0.0
 40
200
  0
ENDSEC
  0
EOF
