  0
SECTION
  2
ENTITIES
  0
LINE
  8
0
 10
5051.78
 20
1779.619
 30
0.0
 11
4847.771
 21
1525.62
 31
0.0
  0
LINE
  8
0
 10
4847.771
 20
1525.62
 30
0.0
 11
4847.771
 21
1652.619
 31
0.0
  0
LINE
  8
0
 10
4847.771
 20
1652.619
 30
0.0
 11
4797.771
 21
1652.619
 31
0.0
  0
LINE
  8
0
 10
4797.771
 20
1652.619
 30
0.0
 11
4797.771
 21
1398.619
 31
0.0
  0
LINE
  8
0
 10
4797.771
 20
1398.619
 30
0.0
 11
4847.771
 21
1398.619
 31
0.0
  0
LINE
  8
0
 10
4847.771
 20
1398.619
 30
0.0
 11
4847.771
 21
1525.62
 31
0.0
  0
LINE
  8
0
 10
4847.771
 20
1525.62
 30
0.0
 11
5051.78
 21
1271.619
 31
0.0
  0
CIRCLE
  8
0
 10
1000
 20
7000
 30
0.0
 40
100
  0
CIRCLE
  8
0
 10
1500
 20
8000
 30
0.0
 40
100
  0
CIRCLE
  8
0
 10
2000
 20
7000
 30
0.0
 40
100
  0
CIRCLE
  8
0
 10
100
 20
100
 30
0.0
 40
125
  0
CIRCLE
  8
0
 10
200
 20
200
 30
0.0
 40
200
  0
CIRCLE
  8
0
 10
300
 20
300
 30
0.0
 40
200
  0
CIRCLE
  8
0
 10
350
 20
350
 30
0.0
 40
200
  0
CIRCLE
  8
0
 10
360
 20
360
 30
0.0
 40
200
  0
CIRCLE
  8
0
 10
370
 20
370
 30
0.0
 40
200
  0
ENDSEC
  0
EOF
