  0
SECTION
  2
ENTITIES
  0
ARC
  8
0
 10
4266.881
 20
2333.339
 30
0.0
 40
190.5
 50
180
 51
270
  0
ARC
  8
0
 10
4457.369
 20
2142.84
 30
0.0
 40
190.5
 50
180
 51
270
  0
ARC
  8
0
 10
4457.369
 20
1761.841
 30
0.0
 40
190.5
 50
360
 51
89.99999
  0
ARC
  8
0
 10
4838.38
 20
1761.841
 30
0.0
 40
190.5
 50
180
 51
270
  0
ARC
  8
0
 10
4647.882
 20
1571.34
 30
0.0
 40
190.5
 50
270
 51
360
  0
ARC
  8
0
 10
4457.369
 20
1380.84
 30
0.0
 40
190.5
 50
270
 51
360
  0
ARC
  8
0
 10
4457.369
 20
999.84
 30
0.0
 40
190.5
 50
89.99999
 51
180
  0
ARC
  8
0
 10
4076.378
 20
999.84
 30
0.0
 40
190.5
 50
270
 51
360
  0
CIRCLE
  8
0
 10
1000
 20
7000
 30
0.0
 40
100
  0
CIRCLE
  8
0
 10
1000
 20
8000
 30
0.0
 40
100
  0
CIRCLE
  8
0
 10
2500
 20
7000
 30
0.0
 40
100
  0
CIRCLE
  8
0
 10
2500
 20
8000
 30
0.0
 40
100
  0
CIRCLE
  8
0
 10
100
 20
100
 30
0.0
 40
125
  0
CIRCLE
  8
0
 10
200
 20
200
 30
0.0
 40
200
  0
CIRCLE
  8
0
 10
300
 20
300
 30
0.0
 40
200
  0
CIRCLE
  8
0
 10
350
 20
350
 30
0.0
 40
200
  0
CIRCLE
  8
0
 10
360
 20
360
 30
0.0
 40
200
  0
CIRCLE
  8
0
 10
370
 20
370
 30
0.0
 40
200
  0
ENDSEC
  0
EOF
