  0
SECTION
  2
ENTITIES
  0
ARC
  8
0
 10
4807.933
 20
1706.911
 30
0.0
 40
182.6951
 50
170.884
 51
327.5398
  0
ARC
  8
0
 10
5065.196
 20
1568.194
 30
0.0
 40
110.8435
 50
86.76117
 51
158.4767
  0
ARC
  8
0
 10
5076.378
 20
1639.316
 30
0.0
 40
39.85135
 50
310.1653
 51
97.09173
  0
ARC
  8
0
 10
5076.378
 20
1578.405
 30
0.0
 40
39.85135
 50
262.9083
 51
49.83467
  0
ARC
  8
0
 10
5065.196
 20
1649.526
 30
0.0
 40
110.8435
 50
201.5233
 51
273.2389
  0
ARC
  8
0
 10
4807.933
 20
1510.801
 30
0.0
 40
182.6951
 50
32.46019
 51
189.1161
  0
ARC
  8
0
 10
4807.933
 20
1452.911
 30
0.0
 40
182.6951
 50
170.884
 51
327.5398
  0
ARC
  8
0
 10
5065.196
 20
1314.193
 30
0.0
 40
110.8435
 50
86.76117
 51
158.4767
  0
ARC
  8
0
 10
5076.378
 20
1385.314
 30
0.0
 40
39.85135
 50
310.1653
 51
97.09173
  0
ARC
  8
0
 10
5076.378
 20
1324.403
 30
0.0
 40
39.85135
 50
262.9083
 51
49.83467
  0
ARC
  8
0
 10
5065.196
 20
1395.524
 30
0.0
 40
110.8435
 50
201.5233
 51
273.2389
  0
ARC
  8
0
 10
4807.933
 20
1256.801
 30
0.0
 40
182.6951
 50
32.46045
 51
189.1161
  0
CIRCLE
  8
0
 10
1000
 20
7000
 30
0.0
 40
100
  0
CIRCLE
  8
0
 10
2000
 20
7000
 30
0.0
 40
100
  0
CIRCLE
  8
0
 10
100
 20
100
 30
0.0
 40
125
  0
CIRCLE
  8
0
 10
200
 20
200
 30
0.0
 40
200
  0
CIRCLE
  8
0
 10
300
 20
300
 30
0.0
 40
200
  0
CIRCLE
  8
0
 10
350
 20
350
 30
0.0
 40
200
  0
CIRCLE
  8
0
 10
360
 20
360
 30
0.0
 40
200
  0
CIRCLE
  8
0
 10
370
 20
370
 30
0.0
 40
200
  0
ENDSEC
  0
EOF
