  0
SECTION
  2
ENTITIES
  0
ARC
  8
0
 10
4815.747
 20
1912.962
 30
0.0
 40
145.4606
 50
312.7474
 51
16.16265
  0
ARC
  8
0
 10
4914.477
 20
1926.336
 30
0.0
 40
49.1335
 50
33.48805
 51
146.5119
  0
ARC
  8
0
 10
5013.214
 20
1912.962
 30
0.0
 40
145.4606
 50
163.8373
 51
227.2526
  0
ARC
  8
0
 10
4807.667
 20
1707.402
 30
0.0
 40
145.4606
 50
42.74739
 51
106.1626
  0
ARC
  8
0
 10
4794.281
 20
1806.136
 30
0.0
 40
49.1335
 50
123.488
 51
236.5119
  0
ARC
  8
0
 10
4807.667
 20
1904.868
 30
0.0
 40
145.4606
 50
253.8373
 51
317.2526
  0
ARC
  8
0
 10
5013.214
 20
1699.322
 30
0.0
 40
145.4606
 50
132.7474
 51
196.1627
  0
ARC
  8
0
 10
4914.477
 20
1685.935
 30
0.0
 40
49.1335
 50
213.4881
 51
326.512
  0
ARC
  8
0
 10
4815.747
 20
1699.322
 30
0.0
 40
145.4606
 50
343.8373
 51
47.2526
  0
ARC
  8
0
 10
4775.668
 20
1633.521
 30
0.0
 40
221.5031
 50
.8479501
 51
51.19429
  0
LINE
  8
0
 10
4997.147
 20
1636.801
 30
0.0
 11
4997.147
 21
1467.467
 31
0.0
  0
ARC
  8
0
 10
5218.625
 20
1470.747
 30
0.0
 40
221.5031
 50
180.848
 51
231.1943
  0
ARC
  8
0
 10
5178.547
 20
1404.961
 30
0.0
 40
145.4606
 50
163.8373
 51
227.2526
  0
ARC
  8
0
 10
5079.816
 20
1418.333
 30
0.0
 40
49.1335
 50
33.48805
 51
146.5119
  0
ARC
  8
0
 10
4981.079
 20
1404.961
 30
0.0
 40
145.4606
 50
312.7474
 51
16.16265
  0
ARC
  8
0
 10
5186.626
 20
1199.4
 30
0.0
 40
145.4606
 50
73.83736
 51
137.2526
  0
ARC
  8
0
 10
5200.012
 20
1298.134
 30
0.0
 40
49.1335
 50
303.4881
 51
56.51195
  0
ARC
  8
0
 10
5186.626
 20
1396.867
 30
0.0
 40
145.4606
 50
222.7474
 51
286.1627
  0
ARC
  8
0
 10
4981.079
 20
1191.319
 30
0.0
 40
145.4606
 50
343.8373
 51
47.2526
  0
ARC
  8
0
 10
5079.816
 20
1177.933
 30
0.0
 40
49.1335
 50
213.4881
 51
326.512
  0
ARC
  8
0
 10
5178.547
 20
1191.319
 30
0.0
 40
145.4606
 50
132.7474
 51
196.1627
  0
ARC
  8
0
 10
5218.625
 20
1125.52
 30
0.0
 40
221.5031
 50
128.8057
 51
179.1521
  0
LINE
  8
0
 10
4997.147
 20
1128.799
 30
0.0
 11
4997.147
 21
959.4658
 31
0.0
  0
ARC
  8
0
 10
4775.668
 20
962.7455
 30
0.0
 40
221.5031
 50
308.8058
 51
359.1521
  0
CIRCLE
  8
0
 10
1000
 20
7000
 30
0.0
 40
100
  0
CIRCLE
  8
0
 10
1500
 20
7000
 30
0.0
 40
100
  0
CIRCLE
  8
0
 10
2000
 20
7000
 30
0.0
 40
100
  0
CIRCLE
  8
0
 10
100
 20
100
 30
0.0
 40
125
  0
CIRCLE
  8
0
 10
200
 20
200
 30
0.0
 40
200
  0
CIRCLE
  8
0
 10
300
 20
300
 30
0.0
 40
200
  0
CIRCLE
  8
0
 10
350
 20
350
 30
0.0
 40
200
  0
CIRCLE
  8
0
 10
360
 20
360
 30
0.0
 40
200
  0
CIRCLE
  8
0
 10
370
 20
370
 30
0.0
 40
200
  0
ENDSEC
  0
EOF
