  0
SECTION
  2
ENTITIES
  0
ARC
  8
0
 10
-91.54783
 20
66.9164
 30
0.0
 40
57.33329
 50
225.4164
 51
311.3402
  0
ARC
  8
0
 10
-16.58207
 20
-18.63967
 30
0.0
 40
56.41979
 50
8.778711
 51
131.1088
  0
ARC
  8
0
 10
94.93586
 20
-1.418158
 30
0.0
 40
56.41979
 50
188.7783
 51
311.1084
  0
ARC
  8
0
 10
169.1263
 20
-86.43944
 30
0.0
 40
56.41979
 50
8.778694
 51
131.1088
  0
ARC
  8
0
 10
280.644
 20
-69.2186
 30
0.0
 40
56.41979
 50
188.7784
 51
311.1084
  0
ARC
  8
0
 10
354.8349
 20
-154.2381
 30
0.0
 40
56.41979
 50
8.778717
 51
131.1088
  0
ARC
  8
0
 10
370.8414
 20
-185.6643
 30
0.0
 40
56.41979
 50
45.20377
 51
167.5339
  0
ARC
  8
0
 10
260.6625
 20
-161.3069
 30
0.0
 40
56.41979
 50
225.2034
 51
347.5334
  0
ARC
  8
0
 10
181.157
 20
-241.3795
 30
0.0
 40
56.41979
 50
45.2038
 51
167.5338
  0
ARC
  8
0
 10
70.9776
 20
-217.0207
 30
0.0
 40
56.41979
 50
225.2034
 51
347.5334
  0
ARC
  8
0
 10
-8.527761
 20
-297.0935
 30
0.0
 40
56.41979
 50
45.2038
 51
167.5339
  0
ARC
  8
0
 10
-119.6486
 20
-272.7648
 30
0.0
 40
57.33329
 50
261.8416
 51
347.7653
  0
CIRCLE
  8
0
 10
1000
 20
7000
 30
0.0
 40
100
  0
CIRCLE
  8
0
 10
1500
 20
7000
 30
0.0
 40
100
  0
CIRCLE
  8
0
 10
100
 20
100
 30
0.0
 40
125
  0
CIRCLE
  8
0
 10
200
 20
200
 30
0.0
 40
200
  0
CIRCLE
  8
0
 10
300
 20
300
 30
0.0
 40
200
  0
CIRCLE
  8
0
 10
350
 20
350
 30
0.0
 40
200
  0
CIRCLE
  8
0
 10
360
 20
360
 30
0.0
 40
200
  0
CIRCLE
  8
0
 10
370
 20
370
 30
0.0
 40
200
  0
ENDSEC
  0
EOF
