  0
SECTION
  2
ENTITIES
  0
ARC
  8
0
 10
5238.128
 20
1223.52
 30
0.0
 40
244.6322
 50
81.08465
 51
152.0455
  0
ARC
  8
0
 10
5238.128
 20
1452.87
 30
0.0
 40
244.6322
 50
207.9545
 51
278.9154
  0
ARC
  8
0
 10
5059.949
 20
1325.87
 30
0.0
 40
244.6322
 50
261.0847
 51
332.0454
  0
ARC
  8
0
 10
5059.949
 20
842.5198
 30
0.0
 40
244.6322
 50
27.95453
 51
98.91534
  0
CIRCLE
  8
0
 10
1000
 20
7000
 30
0.0
 40
100
  0
CIRCLE
  8
0
 10
1000
 20
8000
 30
0.0
 40
100
  0
CIRCLE
  8
0
 10
1500
 20
7000
 30
0.0
 40
100
  0
CIRCLE
  8
0
 10
1500
 20
8000
 30
0.0
 40
100
  0
CIRCLE
  8
0
 10
100
 20
100
 30
0.0
 40
125
  0
CIRCLE
  8
0
 10
200
 20
200
 30
0.0
 40
200
  0
CIRCLE
  8
0
 10
300
 20
300
 30
0.0
 40
200
  0
CIRCLE
  8
0
 10
350
 20
350
 30
0.0
 40
200
  0
CIRCLE
  8
0
 10
360
 20
360
 30
0.0
 40
200
  0
CIRCLE
  8
0
 10
370
 20
370
 30
0.0
 40
200
  0
ENDSEC
  0
EOF
