  0
SECTION
  2
ENTITIES
  0
ARC
  8
0
 10
5062.841
 20
1529.34
 30
0.0
 40
45.00006
 50
315
 51
89.99999
  0
ARC
  8
0
 10
5103.578
 20
1488.09
 30
0.0
 40
12.98788
 50
133.3937
 51
316.6062
  0
ARC
  8
0
 10
5144.838
 20
1447.34
 30
0.0
 40
45.00006
 50
225
 51
135
  0
ARC
  8
0
 10
5103.578
 20
1406.6
 30
0.0
 40
12.98788
 50
43.39374
 51
226.6062
  0
ARC
  8
0
 10
5062.841
 20
1365.341
 30
0.0
 40
45.00006
 50
270
 51
45
  0
ARC
  8
0
 10
5062.841
 20
1275.34
 30
0.0
 40
45.00006
 50
89.99999
 51
225
  0
ARC
  8
0
 10
5022.099
 20
1234.09
 30
0.0
 40
12.98788
 50
223.3937
 51
46.60625
  0
ARC
  8
0
 10
4980.839
 20
1193.34
 30
0.0
 40
45.00006
 50
45
 51
315
  0
ARC
  8
0
 10
5022.099
 20
1152.6
 30
0.0
 40
12.98788
 50
313.3937
 51
136.6062
  0
ARC
  8
0
 10
5062.841
 20
1111.34
 30
0.0
 40
45.00006
 50
135
 51
270
  0
CIRCLE
  8
0
 10
1000
 20
7000
 30
0.0
 40
100
  0
CIRCLE
  8
0
 10
1000
 20
8000
 30
0.0
 40
100
  0
CIRCLE
  8
0
 10
1500
 20
7000
 30
0.0
 40
100
  0
CIRCLE
  8
0
 10
1500
 20
8000
 30
0.0
 40
100
  0
CIRCLE
  8
0
 10
100
 20
100
 30
0.0
 40
125
  0
CIRCLE
  8
0
 10
200
 20
200
 30
0.0
 40
200
  0
CIRCLE
  8
0
 10
300
 20
300
 30
0.0
 40
200
  0
CIRCLE
  8
0
 10
350
 20
350
 30
0.0
 40
200
  0
CIRCLE
  8
0
 10
360
 20
360
 30
0.0
 40
200
  0
CIRCLE
  8
0
 10
370
 20
370
 30
0.0
 40
200
  0
ENDSEC
  0
EOF
