  0
SECTION
  2
ENTITIES
  0
LINE
  8
0
 10
5189.179
 20
1707.554
 30
0.0
 11
5316.181
 21
1580.554
 31
0.0
  0
LINE
  8
0
 10
5316.181
 20
1580.554
 30
0.0
 11
5443.183
 21
1580.554
 31
0.0
  0
LINE
  8
0
 10
5443.183
 20
1580.554
 30
0.0
 11
5443.183
 21
1453.554
 31
0.0
  0
LINE
  8
0
 10
5443.183
 20
1453.554
 30
0.0
 11
5316.181
 21
1453.554
 31
0.0
  0
LINE
  8
0
 10
5316.181
 20
1453.554
 30
0.0
 11
5189.179
 21
1326.555
 31
0.0
  0
LINE
  8
0
 10
5189.179
 20
1326.555
 30
0.0
 11
5062.182
 21
1326.555
 31
0.0
  0
LINE
  8
0
 10
5062.182
 20
1326.555
 30
0.0
 11
5062.182
 21
1199.554
 31
0.0
  0
LINE
  8
0
 10
5062.182
 20
1199.554
 30
0.0
 11
5189.179
 21
1199.554
 31
0.0
  0
CIRCLE
  8
0
 10
1000
 20
7000
 30
0.0
 40
100
  0
CIRCLE
  8
0
 10
1000
 20
8000
 30
0.0
 40
100
  0
CIRCLE
  8
0
 10
1500
 20
7000
 30
0.0
 40
100
  0
CIRCLE
  8
0
 10
1500
 20
8000
 30
0.0
 40
100
  0
CIRCLE
  8
0
 10
2000
 20
7000
 30
0.0
 40
100
  0
CIRCLE
  8
0
 10
2000
 20
8000
 30
0.0
 40
100
  0
CIRCLE
  8
0
 10
100
 20
100
 30
0.0
 40
125
  0
CIRCLE
  8
0
 10
200
 20
200
 30
0.0
 40
200
  0
CIRCLE
  8
0
 10
300
 20
300
 30
0.0
 40
200
  0
CIRCLE
  8
0
 10
350
 20
350
 30
0.0
 40
200
  0
CIRCLE
  8
0
 10
360
 20
360
 30
0.0
 40
200
  0
CIRCLE
  8
0
 10
370
 20
370
 30
0.0
 40
200
  0
ENDSEC
  0
EOF
