  0
SECTION
  2
ENTITIES
  0
ARC
  8
0
 10
333.6447
 20
593.7797
 30
0.0
 40
62.78432
 50
41.0384
 51
139.3637
  0
ARC
  8
0
 10
380.4262
 20
550.0985
 30
0.0
 40
126.7609
 50
138.1516
 51
241.5305
  0
ARC
  8
0
 10
285.9521
 20
341.5556
 30
0.0
 40
102.9071
 50
22.53919
 51
70.67876
  0
ARC
  8
0
 10
428.3594
 20
339.7796
 30
0.0
 40
62.78432
 50
40.63648
 51
138.9616
  0
ARC
  8
0
 10
381.5779
 20
296.0984
 30
0.0
 40
126.7609
 50
298.4695
 51
41.8485
  0
ARC
  8
0
 10
476.0519
 20
87.55551
 30
0.0
 40
102.9071
 50
109.3212
 51
157.4608
  0
CIRCLE
  8
0
 10
1000
 20
7000
 30
0.0
 40
100
  0
CIRCLE
  8
0
 10
1000
 20
8000
 30
0.0
 40
100
  0
CIRCLE
  8
0
 10
1500
 20
7000
 30
0.0
 40
100
  0
CIRCLE
  8
0
 10
1500
 20
8000
 30
0.0
 40
100
  0
CIRCLE
  8
0
 10
100
 20
100
 30
0.0
 40
125
  0
CIRCLE
  8
0
 10
200
 20
200
 30
0.0
 40
200
  0
CIRCLE
  8
0
 10
300
 20
300
 30
0.0
 40
200
  0
CIRCLE
  8
0
 10
350
 20
350
 30
0.0
 40
200
  0
CIRCLE
  8
0
 10
360
 20
360
 30
0.0
 40
200
  0
CIRCLE
  8
0
 10
370
 20
370
 30
0.0
 40
200
  0
ENDSEC
  0
EOF
