  0
SECTION
  2
ENTITIES
  0
ARC
  8
0
 10
5295.712
 20
1383.011
 30
0.0
 40
253.7766
 50
180
 51
0
  0
ARC
  8
0
 10
5422.603
 20
1383.011
 30
0.0
 40
126.8883
 50
180
 51
0
  0
ARC
  8
0
 10
5422.603
 20
1383.011
 30
0.0
 40
126.8883
 50
89.99999
 51
180
  0
ARC
  8
0
 10
5422.603
 20
1383.011
 30
0.0
 40
126.8883
 50
0
 51
89.99999
  0
ARC
  8
0
 10
5422.603
 20
1383.011
 30
0.0
 40
126.8883
 50
0
 51
89.99999
  0
ARC
  8
0
 10
5422.603
 20
1256.123
 30
0.0
 40
253.7766
 50
270
 51
89.99999
  0
LINE
  8
0
 10
5422.603
 20
1002.346
 30
0.0
 11
4661.242
 21
1002.376
 31
0.0
  0
ARC
  8
0
 10
4661.32
 20
748.6
 30
0.0
 40
253.7766
 50
90.01855
 51
270.0185
  0
ARC
  8
0
 10
4661.364
 20
621.7109
 30
0.0
 40
126.8883
 50
270.0185
 51
.018544
  0
ARC
  8
0
 10
4661.364
 20
621.7109
 30
0.0
 40
126.8883
 50
.018544
 51
180.0185
  0
ARC
  8
0
 10
4661.364
 20
621.7109
 30
0.0
 40
126.8883
 50
180.0185
 51
270.0185
  0
ARC
  8
0
 10
4661.364
 20
621.7109
 30
0.0
 40
126.8883
 50
180.0185
 51
270.0185
  0
ARC
  8
0
 10
4788.249
 20
621.7512
 30
0.0
 40
253.7766
 50
.018544
 51
180.0185
  0
LINE
  8
0
 10
5042.025
 20
621.8414
 30
0.0
 11
5041.869
 21
-140.9879
 31
0.0
  0
CIRCLE
  8
0
 10
1000
 20
7000
 30
0.0
 40
100
  0
CIRCLE
  8
0
 10
3500
 20
7000
 30
0.0
 40
100
  0
CIRCLE
  8
0
 10
100
 20
100
 30
0.0
 40
125
  0
CIRCLE
  8
0
 10
200
 20
200
 30
0.0
 40
200
  0
CIRCLE
  8
0
 10
300
 20
300
 30
0.0
 40
200
  0
CIRCLE
  8
0
 10
350
 20
350
 30
0.0
 40
200
  0
CIRCLE
  8
0
 10
360
 20
360
 30
0.0
 40
200
  0
CIRCLE
  8
0
 10
370
 20
370
 30
0.0
 40
200
  0
ENDSEC
  0
EOF
