  0
SECTION
  2
ENTITIES
  0
ARC
  8
0
 10
5064.862
 20
1493.68
 30
0.0
 40
127.0002
 50
270
 51
0
  0
ARC
  8
0
 10
5064.862
 20
1239.679
 30
0.0
 40
127.0002
 50
89.99999
 51
270
  0
ARC
  8
0
 10
5064.862
 20
985.6799
 30
0.0
 40
127.0002
 50
0
 51
89.99999
  0
CIRCLE
  8
0
 10
1000
 20
7000
 30
0.0
 40
100
  0
CIRCLE
  8
0
 10
1000
 20
8000
 30
0.0
 40
100
  0
CIRCLE
  8
0
 10
1500
 20
7000
 30
0.0
 40
100
  0
CIRCLE
  8
0
 10
1500
 20
8000
 30
0.0
 40
100
  0
CIRCLE
  8
0
 10
100
 20
100
 30
0.0
 40
125
  0
CIRCLE
  8
0
 10
200
 20
200
 30
0.0
 40
200
  0
CIRCLE
  8
0
 10
300
 20
300
 30
0.0
 40
200
  0
CIRCLE
  8
0
 10
350
 20
350
 30
0.0
 40
200
  0
CIRCLE
  8
0
 10
360
 20
360
 30
0.0
 40
200
  0
CIRCLE
  8
0
 10
370
 20
370
 30
0.0
 40
200
  0
ENDSEC
  0
EOF
